  0
SECTION
  2
HEADER
  9
$ACADVER
  1
AC1015
  9
$ACADMAINTVER
 70
     6
  9
$DWGCODEPAGE
  3
ANSI_1252
  9
$INSBASE
 10
0.0
 20
0.0
 30
0.0
  9
$EXTMIN
 10
-124.9254547603
 20
-26.9383799196
 30
0.0
  9
$EXTMAX
 10
124.9615659287
 20
0.0
 30
0.0
  9
$LIMMIN
 10
0.0
 20
0.0
  9
$LIMMAX
 10
420.0
 20
297.0
  9
$ORTHOMODE
 70
     0
  9
$REGENMODE
 70
     1
  9
$FILLMODE
 70
     1
  9
$QTEXTMODE
 70
     0
  9
$MIRRTEXT
 70
     1
  9
$LTSCALE
 40
1.0
  9
$ATTMODE
 70
     1
  9
$TEXTSIZE
 40
3.5
  9
$TRACEWID
 40
1.0
  9
$TEXTSTYLE
  7
Standard
  9
$CLAYER
  8
0
  9
$CELTYPE
  6
ByLayer
  9
$CECOLOR
 62
   256
  9
$CELTSCALE
 40
1.0
  9
$DISPSILH
 70
     0
  9
$DIMSCALE
 40
1.0
  9
$DIMASZ
 40
3.302
  9
$DIMEXO
 40
1.0
  9
$DIMDLI
 40
3.75
  9
$DIMRND
 40
0.0
  9
$DIMDLE
 40
0.0
  9
$DIMEXE
 40
1.0
  9
$DIMTP
 40
0.0
  9
$DIMTM
 40
0.0
  9
$DIMTXT
 40
3.5
  9
$DIMCEN
 40
2.5
  9
$DIMTSZ
 40
0.0
  9
$DIMTOL
 70
     0
  9
$DIMLIM
 70
     0
  9
$DIMTIH
 70
     1
  9
$DIMTOH
 70
     1
  9
$DIMSE1
 70
     0
  9
$DIMSE2
 70
     0
  9
$DIMTAD
 70
     1
  9
$DIMZIN
 70
     1
  9
$DIMBLK
  1

  9
$DIMASO
 70
     1
  9
$DIMSHO
 70
     1
  9
$DIMPOST
  1

  9
$DIMAPOST
  1

  9
$DIMALT
 70
     0
  9
$DIMALTD
 70
     3
  9
$DIMALTF
 40
0.0393700787
  9
$DIMLFAC
 40
1.0
  9
$DIMTOFL
 70
     1
  9
$DIMTVP
 40
0.0
  9
$DIMTIX
 70
     0
  9
$DIMSOXD
 70
     0
  9
$DIMSAH
 70
     0
  9
$DIMBLK1
  1

  9
$DIMBLK2
  1

  9
$DIMSTYLE
  2
ISO-25
  9
$DIMCLRD
 70
     0
  9
$DIMCLRE
 70
     0
  9
$DIMCLRT
 70
     0
  9
$DIMTFAC
 40
1.0
  9
$DIMGAP
 40
1.524
  9
$DIMJUST
 70
     0
  9
$DIMSD1
 70
     0
  9
$DIMSD2
 70
     0
  9
$DIMTOLJ
 70
     0
  9
$DIMTZIN
 70
     1
  9
$DIMALTZ
 70
     0
  9
$DIMALTTZ
 70
     0
  9
$DIMUPT
 70
     0
  9
$DIMDEC
 70
     2
  9
$DIMTDEC
 70
     2
  9
$DIMALTU
 70
     2
  9
$DIMALTTD
 70
     3
  9
$DIMTXSTY
  7
Standard
  9
$DIMAUNIT
 70
     0
  9
$DIMADEC
 70
     2
  9
$DIMALTRND
 40
0.0
  9
$DIMAZIN
 70
     0
  9
$DIMDSEP
 70
    44
  9
$DIMATFIT
 70
     3
  9
$DIMFRAC
 70
     0
  9
$DIMLDRBLK
  1

  9
$DIMLUNIT
 70
     2
  9
$DIMLWD
 70
    -2
  9
$DIMLWE
 70
    -2
  9
$DIMTMOVE
 70
     0
  9
$LUNITS
 70
     2
  9
$LUPREC
 70
     2
  9
$SKETCHINC
 40
1.0
  9
$FILLETRAD
 40
10.0
  9
$AUNITS
 70
     0
  9
$AUPREC
 70
     2
  9
$MENU
  1
.
  9
$ELEVATION
 40
0.0
  9
$PELEVATION
 40
0.0
  9
$THICKNESS
 40
0.0
  9
$LIMCHECK
 70
     0
  9
$CHAMFERA
 40
0.0
  9
$CHAMFERB
 40
0.0
  9
$CHAMFERC
 40
0.0
  9
$CHAMFERD
 40
0.0
  9
$SKPOLY
 70
     0
  9
$TDCREATE
 40
2458862.406299977
  9
$TDUCREATE
 40
2458862.406299977
  9
$TDUPDATE
 40
2458862.406320625
  9
$TDUUPDATE
 40
2458862.406320625
  9
$TDINDWG
 40
0.0000000116
  9
$TDUSRTIMER
 40
0.0000000116
  9
$USRTIMER
 70
     1
  9
$ANGBASE
 50
0.0
  9
$ANGDIR
 70
     0
  9
$PDMODE
 70
     0
  9
$PDSIZE
 40
-1.0
  9
$PLINEWID
 40
0.0
  9
$SPLFRAME
 70
     0
  9
$SPLINETYPE
 70
     6
  9
$SPLINESEGS
 70
     8
  9
$HANDSEED
  5
44B
  9
$SURFTAB1
 70
     6
  9
$SURFTAB2
 70
     6
  9
$SURFTYPE
 70
     6
  9
$SURFU
 70
     6
  9
$SURFV
 70
     6
  9
$UCSBASE
  2

  9
$UCSNAME
  2

  9
$UCSORG
 10
0.0
 20
0.0
 30
0.0
  9
$UCSXDIR
 10
1.0
 20
0.0
 30
0.0
  9
$UCSYDIR
 10
0.0
 20
1.0
 30
0.0
  9
$UCSORTHOREF
  2

  9
$UCSORTHOVIEW
 70
     0
  9
$UCSORGTOP
 10
0.0
 20
0.0
 30
0.0
  9
$UCSORGBOTTOM
 10
0.0
 20
0.0
 30
0.0
  9
$UCSORGLEFT
 10
0.0
 20
0.0
 30
0.0
  9
$UCSORGRIGHT
 10
0.0
 20
0.0
 30
0.0
  9
$UCSORGFRONT
 10
0.0
 20
0.0
 30
0.0
  9
$UCSORGBACK
 10
0.0
 20
0.0
 30
0.0
  9
$PUCSBASE
  2

  9
$PUCSNAME
  2

  9
$PUCSORG
 10
0.0
 20
0.0
 30
0.0
  9
$PUCSXDIR
 10
1.0
 20
0.0
 30
0.0
  9
$PUCSYDIR
 10
0.0
 20
1.0
 30
0.0
  9
$PUCSORTHOREF
  2

  9
$PUCSORTHOVIEW
 70
     0
  9
$PUCSORGTOP
 10
0.0
 20
0.0
 30
0.0
  9
$PUCSORGBOTTOM
 10
0.0
 20
0.0
 30
0.0
  9
$PUCSORGLEFT
 10
0.0
 20
0.0
 30
0.0
  9
$PUCSORGRIGHT
 10
0.0
 20
0.0
 30
0.0
  9
$PUCSORGFRONT
 10
0.0
 20
0.0
 30
0.0
  9
$PUCSORGBACK
 10
0.0
 20
0.0
 30
0.0
  9
$USERI1
 70
     0
  9
$USERI2
 70
     0
  9
$USERI3
 70
     0
  9
$USERI4
 70
     0
  9
$USERI5
 70
     0
  9
$USERR1
 40
0.0
  9
$USERR2
 40
0.0
  9
$USERR3
 40
0.0
  9
$USERR4
 40
0.0
  9
$USERR5
 40
0.0
  9
$WORLDVIEW
 70
     1
  9
$SHADEDGE
 70
     3
  9
$SHADEDIF
 70
    70
  9
$TILEMODE
 70
     1
  9
$MAXACTVP
 70
    64
  9
$PINSBASE
 10
0.0
 20
0.0
 30
0.0
  9
$PLIMCHECK
 70
     0
  9
$PEXTMIN
 10
-124.9645918664
 20
-15.6377368144
 30
0.0
  9
$PEXTMAX
 10
124.9254547603
 20
3.5
 30
0.0
  9
$PLIMMIN
 10
-144.4112881019
 20
-22.9302479027
  9
$PLIMMAX
 10
144.3721509958
 20
181.2600625705
  9
$UNITMODE
 70
     0
  9
$VISRETAIN
 70
     1
  9
$PLINEGEN
 70
     0
  9
$PSLTSCALE
 70
     1
  9
$TREEDEPTH
 70
  3020
  9
$CMLSTYLE
  2
Standard
  9
$CMLJUST
 70
     0
  9
$CMLSCALE
 40
20.0
  9
$PROXYGRAPHICS
 70
     1
  9
$MEASUREMENT
 70
     1
  9
$CELWEIGHT
370
    -1
  9
$ENDCAPS
280
     0
  9
$JOINSTYLE
280
     0
  9
$LWDISPLAY
290
     1
  9
$INSUNITS
 70
     4
  9
$HYPERLINKBASE
  1

  9
$STYLESHEET
  1

  9
$XEDIT
290
     1
  9
$CEPSNTYPE
380
     0
  9
$PSTYLEMODE
290
     1
  9
$FINGERPRINTGUID
  2
{21821e9b-2a4c-4c0e-9330-5161f1ecefbb}
  9
$VERSIONGUID
  2
{FAEB1C32-E019-11D5-929B-00C0DF256EC4}
  9
$EXTNAMES
290
     1
  9
$PSVPSCALE
 40
0.0
  9
$OLESTARTUP
290
     0
  0
ENDSEC
  0
SECTION
  2
CLASSES
  0
CLASS
  1
ACDBDICTIONARYWDFLT
  2
AcDbDictionaryWithDefault
  3
ObjectDBX Classes
 90
        0
280
     0
281
     0
  0
CLASS
  1
VISUALSTYLE
  2
AcDbVisualStyle
  3
ObjectDBX Classes
 90
     4095
280
     0
281
     0
  0
CLASS
  1
MATERIAL
  2
AcDbMaterial
  3
ObjectDBX Classes
 90
     1153
280
     0
281
     0
  0
CLASS
  1
SCALE
  2
AcDbScale
  3
ObjectDBX Classes
 90
     1153
280
     0
281
     0
  0
CLASS
  1
TABLESTYLE
  2
AcDbTableStyle
  3
ObjectDBX Classes
 90
     4095
280
     0
281
     0
  0
CLASS
  1
MLEADERSTYLE
  2
AcDbMLeaderStyle
  3
ACDB_MLEADERSTYLE_CLASS
 90
     4095
280
     0
281
     0
  0
CLASS
  1
SUN
  2
AcDbSun
  3
SCENEOE
 90
     1153
280
     0
281
     0
  0
CLASS
  1
ACDBPLACEHOLDER
  2
AcDbPlaceHolder
  3
ObjectDBX Classes
 90
        0
280
     0
281
     0
  0
CLASS
  1
LAYOUT
  2
AcDbLayout
  3
ObjectDBX Classes
 90
        0
280
     0
281
     0
  0
ENDSEC
  0
SECTION
  2
TABLES
  0
TABLE
  2
VPORT
  5
8
330
0
100
AcDbSymbolTable
 70
     1
  0
VPORT
  5
29
330
8
100
AcDbSymbolTableRecord
100
AcDbViewportTableRecord
  2
*Active
 70
     0
 10
0.0
 20
0.0
 11
1.0
 21
1.0
 12
0.0180555842
 22
-13.4691899598
 13
0.0
 23
0.0
 14
10.0
 24
10.0
 15
10.0
 25
10.0
 16
0.0
 26
0.0
 36
1.0
 17
0.0
 27
0.0
 37
0.0
 40
27.477147518
 41
9.2762453212
 42
50.0
 43
0.0
 44
0.0
 50
0.0
 51
0.0
 71
     0
 72
   100
 73
     1
 74
     3
 75
     0
 76
     0
 77
     0
 78
     0
281
     0
 65
     1
110
0.0
120
0.0
130
0.0
111
1.0
121
0.0
131
0.0
112
0.0
122
1.0
132
0.0
 79
     0
146
0.0
  0
ENDTAB
  0
TABLE
  2
LTYPE
  5
5
330
0
100
AcDbSymbolTable
 70
     6
  0
LTYPE
  5
14
330
5
100
AcDbSymbolTableRecord
100
AcDbLinetypeTableRecord
  2
ByBlock
 70
     0
  3

 72
    65
 73
     0
 40
0.0
  0
LTYPE
  5
15
330
5
100
AcDbSymbolTableRecord
100
AcDbLinetypeTableRecord
  2
ByLayer
 70
     0
  3

 72
    65
 73
     0
 40
0.0
  0
LTYPE
  5
16
330
5
100
AcDbSymbolTableRecord
100
AcDbLinetypeTableRecord
  2
Continuous
 70
     0
  3
Solid line
 72
    65
 73
     0
 40
0.0
  0
LTYPE
  5
6E
330
5
100
AcDbSymbolTableRecord
100
AcDbLinetypeTableRecord
  2
HIDDEN
 70
     0
  3
Hidden __ __ __ __ __ __ __ __ __ __ __ __ __ __
 72
    65
 73
     2
 40
1.905
 49
1.27
 74
     0
 49
-0.635
 74
     0
  0
LTYPE
  5
6F
330
5
100
AcDbSymbolTableRecord
100
AcDbLinetypeTableRecord
  2
PHANTOM
 70
     0
  3
Phantom ______  __  __  ______  __  __  ______
 72
    65
 73
     6
 40
12.7
 49
6.35
 74
     0
 49
-1.27
 74
     0
 49
1.27
 74
     0
 49
-1.27
 74
     0
 49
1.27
 74
     0
 49
-1.27
 74
     0
  0
LTYPE
  5
70
330
5
100
AcDbSymbolTableRecord
100
AcDbLinetypeTableRecord
  2
CENTER
 70
     0
  3
Center ____ _ ____ _ ____ _ ____ _ ____ _ ____
 72
    65
 73
     4
 40
10.16
 49
6.35
 74
     0
 49
-1.27
 74
     0
 49
1.27
 74
     0
 49
-1.27
 74
     0
  0
LTYPE
  5
71
330
5
100
AcDbSymbolTableRecord
100
AcDbLinetypeTableRecord
  2
CENTERX2
 70
     0
  3
Center (2x) ________  __  ________  __  _____
 72
    65
 73
     4
 40
20.32
 49
12.7
 74
     0
 49
-2.54
 74
     0
 49
2.54
 74
     0
 49
-2.54
 74
     0
  0
LTYPE
  5
72
330
5
100
AcDbSymbolTableRecord
100
AcDbLinetypeTableRecord
  2
DOT2
 70
     0
  3
Dot (.5x) ........................................
 72
    65
 73
     2
 40
0.635
 49
0.0
 74
     0
 49
-0.635
 74
     0
  0
ENDTAB
  0
TABLE
  2
LAYER
  5
2
330
0
100
AcDbSymbolTable
 70
     1
  0
LAYER
  5
10
330
2
100
AcDbSymbolTableRecord
100
AcDbLayerTableRecord
  2
0
 70
     0
 62
     7
  6
Continuous
370
    -3
390
F
  0
ENDTAB
  0
TABLE
  2
STYLE
  5
3
330
0
100
AcDbSymbolTable
 70
     1
  0
STYLE
  5
11
330
3
100
AcDbSymbolTableRecord
100
AcDbTextStyleTableRecord
  2
Standard
 70
     0
 40
0.0
 41
1.0
 50
0.0
 71
     0
 42
3.5
  3
txt
  4

  0
ENDTAB
  0
TABLE
  2
VIEW
  5
6
330
0
100
AcDbSymbolTable
 70
     0
  0
ENDTAB
  0
TABLE
  2
UCS
  5
7
330
0
100
AcDbSymbolTable
 70
     0
  0
ENDTAB
  0
TABLE
  2
APPID
  5
9
330
0
100
AcDbSymbolTable
 70
     1
  0
APPID
  5
12
330
9
100
AcDbSymbolTableRecord
100
AcDbRegAppTableRecord
  2
ACAD
 70
     0
  0
ENDTAB
  0
TABLE
  2
DIMSTYLE
  5
A
330
0
100
AcDbSymbolTable
 70
     1
100
AcDbDimStyleTable
  0
DIMSTYLE
105
27
330
A
100
AcDbSymbolTableRecord
100
AcDbDimStyleTableRecord
  2
ISO-25
 70
     0
 41
2.5
 42
0.625
 43
3.75
 44
1.25
 73
     0
 74
     0
 77
     1
 78
     8
140
2.5
141
2.5
143
0.0393700787
147
0.625
171
     3
172
     1
178
     0
271
     2
272
     2
274
     3
278
    44
283
     0
284
     8
340
11
  0
ENDTAB
  0
TABLE
  2
BLOCK_RECORD
  5
1
330
0
100
AcDbSymbolTable
 70
     9
  0
BLOCK_RECORD
  5
1F
330
1
100
AcDbSymbolTableRecord
100
AcDbBlockTableRecord
  2
*Model_Space
340
22
  0
BLOCK_RECORD
  5
1B
330
1
100
AcDbSymbolTableRecord
100
AcDbBlockTableRecord
  2
*Paper_Space
340
1E
  0
BLOCK_RECORD
  5
23
330
1
100
AcDbSymbolTableRecord
100
AcDbBlockTableRecord
  2
*Paper_Space0
340
26
  0
BLOCK_RECORD
  5
157
330
1
100
AcDbSymbolTableRecord
100
AcDbBlockTableRecord
  2
*Paper_Space1
340
158
  0
BLOCK_RECORD
  5
193
330
1
100
AcDbSymbolTableRecord
100
AcDbBlockTableRecord
  2
*Paper_Space2
340
194
  0
BLOCK_RECORD
  5
1DE
330
1
100
AcDbSymbolTableRecord
100
AcDbBlockTableRecord
  2
*Paper_Space3
340
1DF
  0
BLOCK_RECORD
  5
237
330
1
100
AcDbSymbolTableRecord
100
AcDbBlockTableRecord
  2
*Paper_Space4
340
238
  0
BLOCK_RECORD
  5
297
330
1
100
AcDbSymbolTableRecord
100
AcDbBlockTableRecord
  2
*Paper_Space5
340
298
  0
BLOCK_RECORD
  5
2F9
330
1
100
AcDbSymbolTableRecord
100
AcDbBlockTableRecord
  2
*Paper_Space6
340
2FA
  0
BLOCK_RECORD
  5
35A
330
1
100
AcDbSymbolTableRecord
100
AcDbBlockTableRecord
  2
*Paper_Space7
340
35B
  0
BLOCK_RECORD
  5
3BD
330
1
100
AcDbSymbolTableRecord
100
AcDbBlockTableRecord
  2
*Paper_Space8
340
3BE
  0
ENDTAB
  0
ENDSEC
  0
SECTION
  2
BLOCKS
  0
BLOCK
  5
20
330
1F
100
AcDbEntity
  8
0
100
AcDbBlockBegin
  2
*Model_Space
 70
     0
 10
0.0
 20
0.0
 30
0.0
  3
*Model_Space
  1

  0
ENDBLK
  5
21
330
1F
100
AcDbEntity
  8
0
100
AcDbBlockEnd
  0
BLOCK
  5
1C
330
1B
100
AcDbEntity
 67
     1
  8
0
100
AcDbBlockBegin
  2
*Paper_Space
 70
     0
 10
0.0
 20
0.0
 30
0.0
  3
*Paper_Space
  1

  0
ENDBLK
  5
1D
330
1B
100
AcDbEntity
 67
     1
  8
0
100
AcDbBlockEnd
  0
BLOCK
  5
24
330
23
100
AcDbEntity
  8
0
100
AcDbBlockBegin
  2
*Paper_Space0
 70
     0
 10
0.0
 20
0.0
 30
0.0
  3
*Paper_Space0
  1

  0
LWPOLYLINE
  5
119
330
23
100
AcDbEntity
  8
0
  6
Continuous
 62
     7
370
    25
100
AcDbPolyline
 90
        9
 70
   128
 43
0.0
 10
3.5
 20
-9.8210027465
 10
3.4961570561
 20
-9.8081131123
 10
3.4847759065
 20
-9.7957188196
 10
3.4662939225
 20
-9.784296174
 10
3.4414213562
 20
-9.7742841414
 10
3.4111140466
 20
-9.7660674786
 10
3.3765366865
 20
-9.7599619473
 10
3.3390180644
 20
-9.7562021797
 10
3.3
 20
-9.7549326615
  0
LWPOLYLINE
  5
11F
330
23
100
AcDbEntity
  8
0
  6
Continuous
 62
     7
370
    25
100
AcDbPolyline
 90
        9
 70
   128
 43
0.0
 10
-3.5321553546
 20
-0.160776773
 10
-3.5263080711
 20
-0.1495561303
 10
-3.5137382388
 20
-0.1401177625
 10
-3.494889973
 20
-0.1327951443
 10
-3.4704292177
 20
-0.1278469974
 10
-3.4412202163
 20
-0.1254481489
 10
-3.4082949766
 20
-0.1256833546
 10
-3.372816808
 20
-0.1285443042
 10
-3.3360392195
 20
-0.1339299151
  0
LWPOLYLINE
  5
124
330
23
100
AcDbEntity
  8
0
  6
Continuous
 62
     7
370
    25
100
AcDbPolyline
 90
        9
 70
   128
 43
0.0
 10
3.5
 20
-0.2
 10
3.4961570561
 20
-0.1871103659
 10
3.4847759065
 20
-0.1747160731
 10
3.4662939225
 20
-0.1632934275
 10
3.4414213562
 20
-0.1532813949
 10
3.4111140466
 20
-0.1450647321
 10
3.3765366865
 20
-0.1389592008
 10
3.3390180644
 20
-0.1351994332
 10
3.3
 20
-0.1339299151
  0
LINE
  5
13B
330
23
100
AcDbEntity
  8
0
  6
Continuous
 62
     7
370
    25
100
AcDbLine
 10
-15.4469783214
 20
-26.9383799196
 30
0.0
 11
-9.3637011122
 21
-26.9383799196
 31
0.0
  0
LINE
  5
13C
330
23
100
AcDbEntity
  8
0
  6
Continuous
 62
     7
370
    25
100
AcDbLine
 10
3.3
 20
-10.1324635586
 30
0.0
 11
3.3
 21
0.0
 31
0.0
  0
LINE
  5
13D
330
23
100
AcDbEntity
  8
0
  6
Continuous
 62
     7
370
    25
100
AcDbLine
 10
-5.6740930578
 20
-10.8704652892
 30
0.0
 11
-3.5321553546
 21
-0.160776773
 31
0.0
  0
LINE
  5
13E
330
23
100
AcDbEntity
  8
0
  6
Continuous
 62
     7
370
    25
100
AcDbLine
 10
-5.2602397688
 20
-9.7549326615
 30
0.0
 11
3.3
 21
-9.7549326615
 31
0.0
  0
LINE
  5
13F
330
23
100
AcDbEntity
  8
0
  6
Continuous
 62
     7
370
    25
100
AcDbLine
 10
3.3
 20
-10.020385369
 30
0.0
 11
-5.5040770738
 21
-10.020385369
 31
0.0
  0
LINE
  5
140
330
23
100
AcDbEntity
  8
0
  6
Continuous
 62
     7
370
    25
100
AcDbLine
 10
-3.3360392195
 20
-0.1339299151
 30
0.0
 11
-5.2602397688
 21
-9.7549326615
 31
0.0
  0
LINE
  5
141
330
23
100
AcDbEntity
  8
0
  6
Continuous
 62
     7
370
    25
100
AcDbLine
 10
3.3
 20
-0.1339299151
 30
0.0
 11
-3.3360392195
 21
-0.1339299151
 31
0.0
  0
LINE
  5
142
330
23
100
AcDbEntity
  8
0
  6
Continuous
 62
     7
370
    25
100
AcDbLine
 10
3.5
 20
-0.2
 30
0.0
 11
3.5
 21
-9.9330809361
 31
0.0
  0
LINE
  5
143
330
23
100
AcDbEntity
  8
0
  6
Continuous
 62
     7
370
    25
100
AcDbLine
 10
-15.4379658898
 20
-26.9229454833
 30
0.0
 11
-9.3525356575
 21
-26.9229454833
 31
0.0
  0
LINE
  5
144
330
23
100
AcDbEntity
  8
0
  6
Continuous
 62
     7
370
    25
100
AcDbLine
 10
-5.6740930578
 20
-10.8704652892
 30
0.0
 11
-15.4379658898
 21
-26.9229454833
 31
0.0
  0
LINE
  5
145
330
23
100
AcDbEntity
  8
0
  6
Continuous
 62
     7
370
    25
100
AcDbLine
 10
-9.3525356575
 20
-26.9229454833
 30
0.0
 11
3.3
 21
-10.1324635586
 31
0.0
  0
LINE
  5
146
330
23
100
AcDbEntity
  8
0
  6
Continuous
 62
     7
370
    25
100
AcDbLine
 10
3.459727102
 20
-10.0534439407
 30
0.0
 11
-9.2039727552
 21
-26.8587412588
 31
0.0
  0
LINE
  5
147
330
23
100
AcDbEntity
  8
0
  6
Continuous
 62
     7
370
    25
100
AcDbLine
 10
-3.3360392195
 20
-0.1339299151
 30
0.0
 11
-3.3360392195
 21
0.0
 31
0.0
  0
LINE
  5
148
330
23
100
AcDbEntity
  8
0
  6
Continuous
 62
     7
370
    25
100
AcDbLine
 10
-3.3360392195
 20
0.0
 30
0.0
 11
3.3
 21
0.0
 31
0.0
  0
LINE
  5
149
330
23
100
AcDbEntity
  8
0
  6
Continuous
 62
     7
370
    25
100
AcDbLine
 10
-15.6178516134
 20
-26.6344457189
 30
0.0
 11
-5.5
 21
-10.0
 31
0.0
  0
LINE
  5
14A
330
23
100
AcDbEntity
  8
0
  6
Continuous
 62
     8
370
    25
100
AcDbLine
 10
-15.4379658898
 20
-26.9229454833
 30
0.0
 11
-15.4469782445
 21
-26.938379788
 31
0.0
  0
LINE
  5
14B
330
23
100
AcDbEntity
  8
0
  6
Continuous
 62
     8
370
    25
100
AcDbLine
 10
-9.3637010912
 20
-26.9383798906
 30
0.0
 11
-9.3525356575
 21
-26.9229454833
 31
0.0
  0
ARC
  5
14C
330
23
100
AcDbEntity
  8
0
  6
Continuous
 62
     7
370
    25
100
AcDbCircle
 10
-15.4469783214
 20
-26.7383799196
 30
0.0
 40
0.2000000000000045
100
AcDbArc
 50
148.690067526
 51
270.0
  0
ARC
  5
14D
330
23
100
AcDbEntity
  8
0
  6
Continuous
 62
     7
370
    25
100
AcDbCircle
 10
-9.3637011122
 20
-26.7383799196
 30
0.0
 40
0.1999999999999934
100
AcDbArc
 50
273.0616128383
 51
323.0
  0
ARC
  5
14E
330
23
100
AcDbEntity
  8
0
  6
Continuous
 62
     7
370
    25
100
AcDbCircle
 10
3.3003082123
 20
-9.8206935798
 30
0.0
 40
0.1996920270462789
100
AcDbArc
 50
269.9115674759
 51
359.9112936492
  0
ARC
  5
14F
330
23
100
AcDbEntity
  8
0
  6
Continuous
 62
     7
370
    25
100
AcDbCircle
 10
-4.8016329719
 20
-10.4372904648
 30
0.0
 40
0.8221510601874252
100
AcDbArc
 50
123.9047074316
 51
148.2855789299
  0
ARC
  5
150
330
23
100
AcDbEntity
  8
0
  6
Continuous
 62
     7
370
    25
100
AcDbCircle
 10
3.3003082123
 20
-9.9327717695
 30
0.0
 40
0.1996920270462805
100
AcDbArc
 50
269.9115674759
 51
359.9112936492
  0
ARC
  5
151
330
23
100
AcDbEntity
  8
0
  6
Continuous
 62
     7
370
    25
100
AcDbCircle
 10
3.3
 20
-9.9330809361
 30
0.0
 40
0.2000000000000013
100
AcDbArc
 50
323.0
 51
0.0
  0
ARC
  5
152
330
23
100
AcDbEntity
  8
0
  6
Continuous
 62
     7
370
    25
100
AcDbCircle
 10
3.3011001694
 20
-9.9337445935
 30
0.0
 40
0.1987220105422675
100
AcDbArc
 50
269.6827961595
 51
322.9619190777
  0
ARC
  5
153
330
23
100
AcDbEntity
  8
0
  6
Continuous
 62
     7
370
    25
100
AcDbCircle
 10
-9.3514354881
 20
-26.7242265182
 30
0.0
 40
0.1987220105422667
100
AcDbArc
 50
269.6827961595
 51
322.9619190777
  0
ARC
  5
154
330
23
100
AcDbEntity
  8
0
  6
Continuous
 62
     7
370
    25
100
AcDbCircle
 10
3.3
 20
-0.2
 30
0.0
 40
0.1999999999999984
100
AcDbArc
 50
0.0
 51
90.0
  0
ARC
  5
155
330
23
100
AcDbEntity
  8
0
  6
Continuous
 62
     7
370
    25
100
AcDbCircle
 10
-3.3360392195
 20
-0.2
 30
0.0
 40
0.2000000000000008
100
AcDbArc
 50
90.0
 51
168.690067526
  0
ARC
  5
156
330
23
100
AcDbEntity
  8
0
  6
Continuous
 62
     7
370
    25
100
AcDbCircle
 10
-15.4376045224
 20
-26.7229528267
 30
0.0
 40
0.1999929830672554
100
AcDbArc
 50
148.8931842769
 51
269.896472159
  0
VIEWPORT
  5
439
330
23
100
AcDbEntity
  8
0
100
AcDbViewport
 10
0.0
 20
0.0
 30
0.0
 40
205.6
 41
156.0
 68
     1
 69
     1
 12
0.0180555842
 22
-13.4691899598
 13
0.0
 23
0.0
 14
10.0
 24
10.0
 15
10.0
 25
10.0
 16
0.0
 26
0.0
 36
1.0
 17
0.0
 27
0.0
 37
0.0
 42
50.0
 43
0.0
 44
0.0
 45
193.3950521986
 50
0.0
 51
0.0
 72
   100
 90
   557152
  1

281
     0
 71
     1
 74
     0
110
0.0
120
0.0
130
0.0
111
1.0
121
0.0
131
0.0
112
0.0
122
1.0
132
0.0
 79
     0
146
0.0
  0
ENDBLK
  5
25
330
23
100
AcDbEntity
  8
0
100
AcDbBlockEnd
  0
BLOCK
  5
159
330
157
100
AcDbEntity
  8
0
100
AcDbBlockBegin
  2
*Paper_Space1
 70
     0
 10
0.0
 20
0.0
 30
0.0
  3
*Paper_Space1
  1

  0
LWPOLYLINE
  5
161
330
157
100
AcDbEntity
  8
0
  6
Continuous
 62
     7
370
    25
100
AcDbPolyline
 90
       13
 70
   128
 43
0.0
 10
121.1329495008
 20
-10.0
 10
121.4226753521
 20
-10.0088863108
 10
121.5186574759
 20
-10.0352698131
 10
121.4179209183
 20
-10.0783327537
 10
121.1235879963
 20
-10.1367404022
 10
120.6447815211
 20
-10.2086824209
 10
119.9963420383
 20
-10.2919289762
 10
119.1983678471
 20
-10.3838998518
 10
118.2755920556
 20
-10.481744422
 10
117.2566159817
 20
-10.5824300069
 10
116.1730226589
 20
-10.6828358697
 10
115.058397924
 20
-10.7798499434
 10
113.9472894283
 20
-10.8704652892
  0
SPLINE
  5
165
330
157
100
AcDbEntity
  8
0
  6
Continuous
 62
     7
370
    25
100
AcDbSpline
210
0.0
220
0.0
230
1.0
 70
     8
 71
     3
 72
    18
 73
    14
 74
     0
 42
0.000000001
 43
0.00000001
 40
0.0
 40
0.0
 40
0.0
 40
0.0
 40
0.4999999999999982
 40
0.4999999999999982
 40
0.7499999999999971
 40
0.7499999999999971
 40
0.8749999999999966
 40
0.8749999999999966
 40
0.9374999999999907
 40
0.9374999999999907
 40
0.9687499999999953
 40
0.9687499999999953
 40
1.0
 40
1.0
 40
1.0
 40
1.0
 10
-123.8372446237883
 20
-10.81810324672101
 30
0.0
 10
-123.9997067293832
 20
-10.70520623964854
 30
0.0
 10
-124.1545633019085
 20
-10.58175253262242
 30
0.0
 10
-124.3675972834327
 20
-10.37710852437067
 30
0.0
 10
-124.4360919379685
 20
-10.30570726500494
 30
0.0
 10
-124.5242508446414
 20
-10.18750082053922
 30
0.0
 10
-124.5524954052284
 20
-10.14617957725095
 30
0.0
 10
-124.5772666835758
 20
-10.07717739022949
 30
0.0
 10
-124.5837222990577
 20
-10.05050391362559
 30
0.0
 10
-124.5670574491612
 20
-10.01768809497629
 30
0.0
 10
-124.5564032288827
 20
-10.00964817986477
 30
0.0
 10
-124.5330111377798
 20
-10.00124372467596
 30
0.0
 10
-124.5203953637697
 20
-10.00000000000001
 30
0.0
 10
-124.5078747285443
 20
-10.00000000000002
 30
0.0
  0
SPLINE
  5
16F
330
157
100
AcDbEntity
  8
0
  6
Continuous
 62
     7
370
    25
100
AcDbSpline
210
0.0
220
0.0
230
1.0
 70
     8
 71
     3
 72
     8
 73
     4
 74
     0
 42
0.000000001
 43
0.00000001
 40
0.0
 40
0.0
 40
0.0
 40
0.0
 40
0.0000453377850437
 40
0.0000453377850437
 40
0.0000453377850437
 40
0.0000453377850437
 10
-124.8413256270231
 20
-10.11283913876436
 30
0.0
 10
-124.853566785714
 20
-10.10414870624983
 30
0.0
 10
-124.8657194495013
 20
-10.09551763225034
 30
0.0
 10
-124.8774024665147
 20
-10.08721706836373
 30
0.0
  0
LWPOLYLINE
  5
179
330
157
100
AcDbEntity
  8
0
  6
Continuous
 62
     8
370
    25
100
AcDbPolyline
 90
        3
 70
   128
 43
0.0
 10
-96.1445935688
 20
-24.8844810216
 10
-96.0954597278
 20
-24.9024809759
 10
-91.7501299528
 20
-26.4009383228
  0
LINE
  5
17A
330
157
100
AcDbEntity
  8
0
  6
Continuous
 62
     7
370
    25
100
AcDbLine
 10
124.7411573023
 20
-10.020385369
 30
0.0
 11
-89.878664041
 21
-26.9229454833
 31
0.0
  0
LINE
  5
17B
330
157
100
AcDbEntity
  8
0
  6
Continuous
 62
     7
370
    25
100
AcDbLine
 10
-89.894366583
 20
-26.6196294151
 30
0.0
 11
121.1329495008
 21
-10.0
 31
0.0
  0
LINE
  5
17C
330
157
100
AcDbEntity
  8
0
  6
Continuous
 62
     7
370
    25
100
AcDbLine
 10
-124.5078747285
 20
-10.0
 30
0.0
 11
121.1329495008
 21
-10.0
 31
0.0
  0
LINE
  5
17D
330
157
100
AcDbEntity
  8
0
  6
Continuous
 62
     7
370
    25
100
AcDbLine
 10
124.8036159988
 20
-10.0050973439
 30
0.0
 11
121.358103799
 21
-0.160776773
 31
0.0
  0
LINE
  5
17E
330
157
100
AcDbEntity
  8
0
  6
Continuous
 62
     7
370
    25
100
AcDbLine
 10
-121.358103799
 20
-0.160776773
 30
0.0
 11
-124.841325627
 21
-10.1128391388
 31
0.0
  0
LINE
  5
17F
330
157
100
AcDbEntity
  8
0
  6
Continuous
 62
     7
370
    25
100
AcDbLine
 10
121.358103799
 20
-0.160776773
 30
0.0
 11
-121.358103799
 21
-0.160776773
 31
0.0
  0
LINE
  5
180
330
157
100
AcDbEntity
  8
0
  6
Continuous
 62
     7
370
    25
100
AcDbLine
 10
-123.8372446238
 20
-10.8181032467
 30
0.0
 11
-124.841325627
 21
-10.1128391388
 31
0.0
  0
LINE
  5
181
330
157
100
AcDbEntity
  8
0
  6
Continuous
 62
     7
370
    25
100
AcDbLine
 10
-124.9503375999
 20
-9.8581074284
 30
0.0
 11
-121.5468754703
 21
-0.1339299151
 31
0.0
  0
LINE
  5
182
330
157
100
AcDbEntity
  8
0
  6
Continuous
 62
     7
370
    25
100
AcDbLine
 10
121.5468754703
 20
-0.1339299151
 30
0.0
 11
124.9142264315
 21
-9.7549326615
 31
0.0
  0
LINE
  5
183
330
157
100
AcDbEntity
  8
0
  6
Continuous
 62
     7
370
    25
100
AcDbLine
 10
-121.358103799
 20
-0.160776773
 30
0.0
 11
-121.358103799
 21
0.0
 31
0.0
  0
LINE
  5
184
330
157
100
AcDbEntity
  8
0
  6
Continuous
 62
     7
370
    25
100
AcDbLine
 10
-121.358103799
 20
0.0
 30
0.0
 11
121.358103799
 21
0.0
 31
0.0
  0
LINE
  5
185
330
157
100
AcDbEntity
  8
0
  6
Continuous
 62
     7
370
    25
100
AcDbLine
 10
121.358103799
 20
-0.160776773
 30
0.0
 11
121.358103799
 21
0.0
 31
0.0
  0
LINE
  5
186
330
157
100
AcDbEntity
  8
0
  6
Continuous
 62
     8
370
    25
100
AcDbLine
 10
-124.5078747285
 20
-10.0
 30
0.0
 11
-123.0468373116
 21
-11.0165098105
 31
0.0
  0
ARC
  5
187
330
157
100
AcDbEntity
  8
0
  6
Continuous
 62
     7
370
    25
100
AcDbCircle
 10
-90.2712275915
 20
-21.9383799196
 30
0.0
 40
4.999999999999803
100
AcDbArc
 50
252.0549545191
 51
274.5030813831
  0
ARC
  5
188
330
157
100
AcDbEntity
  8
0
  6
Continuous
 62
     7
370
    25
100
AcDbCircle
 10
-91.3397520308
 20
-26.6404470753
 30
0.0
 40
0.4751573226965306
100
AcDbArc
 50
149.7308941001
 51
186.6099487755
  0
ARC
  5
189
330
157
100
AcDbEntity
  8
0
  6
Continuous
 62
     7
370
    25
100
AcDbCircle
 10
-90.2712275915
 20
-21.834446474
 30
0.0
 40
4.800000000000041
100
AcDbArc
 50
252.0549545191
 51
274.5030813831
  0
ARC
  5
18A
330
157
100
AcDbEntity
  8
0
  6
Continuous
 62
     7
370
    25
100
AcDbCircle
 10
-91.6414888237
 20
-26.8621416709
 30
0.0
 40
1.763873101548183
100
AcDbArc
 50
358.0245221942
 51
7.9025421505
  0
ARC
  5
18B
330
157
100
AcDbEntity
  8
0
  6
Continuous
 62
     7
370
    25
100
AcDbCircle
 10
-54.2296522241
 20
89.4531979608
 30
0.0
 40
121.7783525221802
100
AcDbArc
 50
235.5906284542
 51
249.8676166448
  0
ARC
  5
18C
330
157
100
AcDbEntity
  8
0
  6
Continuous
 62
     7
370
    25
100
AcDbCircle
 10
-54.2296522241
 20
89.3492645152
 30
0.0
 40
121.9783525221792
100
AcDbArc
 50
235.2040660788
 51
252.0549545191
  0
ARC
  5
18D
330
157
100
AcDbEntity
  8
0
  6
Continuous
 62
     7
370
    25
100
AcDbCircle
 10
124.7254547603
 20
-9.8210027465
 30
0.0
 40
0.199999999999999
100
AcDbArc
 50
274.5030813831
 51
19.2900462192
  0
ARC
  5
18E
330
157
100
AcDbEntity
  8
0
  6
Continuous
 62
     7
370
    25
100
AcDbCircle
 10
-124.7615659287
 20
-9.9241775133
 30
0.0
 40
0.1999999999999661
100
AcDbArc
 50
160.7099537808
 51
234.6069221345
  0
ARC
  5
18F
330
157
100
AcDbEntity
  8
0
  6
Continuous
 62
     7
370
    25
100
AcDbCircle
 10
-121.4892704268
 20
-0.4059747302
 30
0.0
 40
0.2780768283800312
100
AcDbArc
 50
61.8558130041
 51
101.9556878879
  0
ARC
  5
190
330
157
100
AcDbEntity
  8
0
  6
Continuous
 62
     7
370
    25
100
AcDbCircle
 10
121.4892704268
 20
-0.4059747302
 30
0.0
 40
0.2780768283801001
100
AcDbArc
 50
78.0443121121
 51
118.1441869959
  0
ARC
  5
191
330
157
100
AcDbEntity
  8
0
  6
Continuous
 62
     7
370
    25
100
AcDbCircle
 10
-121.358103799
 20
-0.2
 30
0.0
 40
0.2000000000000011
100
AcDbArc
 50
90.0
 51
160.7099537808
  0
ARC
  5
192
330
157
100
AcDbEntity
  8
0
  6
Continuous
 62
     7
370
    25
100
AcDbCircle
 10
121.358103799
 20
-0.2
 30
0.0
 40
0.1999999999999791
100
AcDbArc
 50
19.2900462192
 51
90.0
  0
VIEWPORT
  5
43B
330
157
100
AcDbEntity
  8
0
100
AcDbViewport
 10
0.0
 20
0.0
 30
0.0
 40
205.6
 41
156.0
 68
     1
 69
     1
 12
0.0180555842
 22
-13.4691899598
 13
0.0
 23
0.0
 14
10.0
 24
10.0
 15
10.0
 25
10.0
 16
0.0
 26
0.0
 36
1.0
 17
0.0
 27
0.0
 37
0.0
 42
50.0
 43
0.0
 44
0.0
 45
193.3950521986
 50
0.0
 51
0.0
 72
   100
 90
   557152
  1

281
     0
 71
     1
 74
     0
110
0.0
120
0.0
130
0.0
111
1.0
121
0.0
131
0.0
112
0.0
122
1.0
132
0.0
 79
     0
146
0.0
  0
ENDBLK
  5
15A
330
157
100
AcDbEntity
  8
0
100
AcDbBlockEnd
  0
BLOCK
  5
195
330
193
100
AcDbEntity
  8
0
100
AcDbBlockBegin
  2
*Paper_Space2
 70
     0
 10
0.0
 20
0.0
 30
0.0
  3
*Paper_Space2
  1

  0
LWPOLYLINE
  5
19A
330
193
100
AcDbEntity
  8
0
  6
Continuous
 62
     7
370
    25
100
AcDbPolyline
 90
        9
 70
   128
 43
0.0
 10
-3.5
 20
-9.9241775133
 10
-3.4961570561
 20
-9.9112878792
 10
-3.4847759065
 20
-9.8988935865
 10
-3.4662939225
 20
-9.8874709409
 10
-3.4414213562
 20
-9.8774589082
 10
-3.4111140466
 20
-9.8692422454
 10
-3.3765366865
 20
-9.8631367142
 10
-3.3390180644
 20
-9.8593769466
 10
-3.3
 20
-9.8581074284
  0
SPLINE
  5
19E
330
193
100
AcDbEntity
  8
0
  6
Continuous
 62
     7
370
    25
100
AcDbSpline
210
0.0
220
0.0
230
1.0
 70
     8
 71
     3
 72
     8
 73
     4
 74
     0
 42
0.000000001
 43
0.00000001
 40
0.0
 40
0.0
 40
0.0
 40
0.0
 40
0.0000453377850437
 40
0.0000453377850437
 40
0.0000453377850437
 40
0.0000453377850437
 10
5.522567827752872
 20
-10.11283913876436
 30
0.0
 10
5.520829741249968
 20
-10.10414870624983
 30
0.0
 10
5.517489984524675
 20
-10.09551763225034
 30
0.0
 10
5.512694332253592
 20
-10.08721706836373
 30
0.0
  0
LWPOLYLINE
  5
1A1
330
193
100
AcDbEntity
  8
0
  6
Continuous
 62
     7
370
    25
100
AcDbPolyline
 90
        9
 70
   128
 43
0.0
 10
3.5321553546
 20
-0.160776773
 10
3.5263080711
 20
-0.1495561303
 10
3.5137382388
 20
-0.1401177625
 10
3.494889973
 20
-0.1327951443
 10
3.4704292177
 20
-0.1278469974
 10
3.4412202163
 20
-0.1254481489
 10
3.4082949766
 20
-0.1256833546
 10
3.372816808
 20
-0.1285443042
 10
3.3360392195
 20
-0.1339299151
  0
LWPOLYLINE
  5
1A5
330
193
100
AcDbEntity
  8
0
  6
Continuous
 62
     7
370
    25
100
AcDbPolyline
 90
        9
 70
   128
 43
0.0
 10
-3.5
 20
-0.2
 10
-3.4961570561
 20
-0.1871103659
 10
-3.4847759065
 20
-0.1747160731
 10
-3.4662939225
 20
-0.1632934275
 10
-3.4414213562
 20
-0.1532813949
 10
-3.4111140466
 20
-0.1450647321
 10
-3.3765366865
 20
-0.1389592008
 10
-3.3390180644
 20
-0.1351994332
 10
-3.3
 20
-0.1339299151
  0
LINE
  5
1C2
330
193
100
AcDbEntity
  8
0
  6
Continuous
 62
     7
370
    25
100
AcDbLine
 10
9.3637011122
 20
-26.9383799196
 30
0.0
 11
15.4469783214
 21
-26.9383799196
 31
0.0
  0
LINE
  5
1C3
330
193
100
AcDbEntity
  8
0
  6
Continuous
 62
     7
370
    25
100
AcDbLine
 10
-3.3
 20
0.0
 30
0.0
 11
-3.3
 21
-10.0961351135
 31
0.0
  0
LINE
  5
1C4
330
193
100
AcDbEntity
  8
0
  6
Continuous
 62
     7
370
    25
100
AcDbLine
 10
3.5321553546
 20
-0.160776773
 30
0.0
 11
5.6636206493
 21
-10.8181032467
 31
0.0
  0
LINE
  5
1C5
330
193
100
AcDbEntity
  8
0
  6
Continuous
 62
     7
370
    25
100
AcDbLine
 10
5.2808747221
 20
-9.8581074284
 30
0.0
 11
3.3360392195
 21
-0.1339299151
 31
0.0
  0
LINE
  5
1C6
330
193
100
AcDbEntity
  8
0
  6
Continuous
 62
     7
370
    25
100
AcDbLine
 10
5.5126943323
 20
-10.0872170684
 30
0.0
 11
-3.3
 21
-10.0872170684
 31
0.0
  0
LINE
  5
1C7
330
193
100
AcDbEntity
  8
0
  6
Continuous
 62
     7
370
    25
100
AcDbLine
 10
-3.3
 20
-9.8581074284
 30
0.0
 11
5.2808747221
 21
-9.8581074284
 31
0.0
  0
LINE
  5
1C8
330
193
100
AcDbEntity
  8
0
  6
Continuous
 62
     7
370
    25
100
AcDbLine
 10
-3.5
 20
-9.9330809361
 30
0.0
 11
-3.5
 21
-0.2
 31
0.0
  0
LINE
  5
1C9
330
193
100
AcDbEntity
  8
0
  6
Continuous
 62
     7
370
    25
100
AcDbLine
 10
3.3360392195
 20
-0.1339299151
 30
0.0
 11
-3.3
 21
-0.1339299151
 31
0.0
  0
LINE
  5
1CA
330
193
100
AcDbEntity
  8
0
  6
Continuous
 62
     7
370
    25
100
AcDbLine
 10
15.3049476902
 20
-26.6951422622
 30
0.0
 11
5.6636206493
 21
-10.8181032467
 31
0.0
  0
LINE
  5
1CB
330
193
100
AcDbEntity
  8
0
  6
Continuous
 62
     7
370
    25
100
AcDbLine
 10
9.1877400992
 20
-26.6951422622
 30
0.0
 11
15.3049476902
 21
-26.6951422622
 31
0.0
  0
LINE
  5
1CC
330
193
100
AcDbEntity
  8
0
  6
Continuous
 62
     7
370
    25
100
AcDbLine
 10
-3.3
 20
-10.0961351135
 30
0.0
 11
9.1877400992
 21
-26.6951422622
 31
0.0
  0
LINE
  5
1CD
330
193
100
AcDbEntity
  8
0
  6
Continuous
 62
     7
370
    25
100
AcDbLine
 10
9.2039727552
 20
-26.8587412588
 30
0.0
 11
-3.459727102
 21
-10.0534439407
 31
0.0
  0
LINE
  5
1CE
330
193
100
AcDbEntity
  8
0
  6
Continuous
 62
     7
370
    25
100
AcDbLine
 10
5.5
 20
-10.0
 30
0.0
 11
15.6178516134
 21
-26.6344457189
 31
0.0
  0
LINE
  5
1CF
330
193
100
AcDbEntity
  8
0
  6
Continuous
 62
     7
370
    25
100
AcDbLine
 10
3.3360392195
 20
0.0
 30
0.0
 11
3.3360392195
 21
-0.1339299151
 31
0.0
  0
LINE
  5
1D0
330
193
100
AcDbEntity
  8
0
  6
Continuous
 62
     7
370
    25
100
AcDbLine
 10
-3.3
 20
0.0
 30
0.0
 11
3.3360392195
 21
0.0
 31
0.0
  0
LINE
  5
1D1
330
193
100
AcDbEntity
  8
0
  6
Continuous
 62
     8
370
    25
100
AcDbLine
 10
15.4469782803
 20
-26.9383798493
 30
0.0
 11
15.3049476902
 21
-26.6951422622
 31
0.0
  0
LINE
  5
1D2
330
193
100
AcDbEntity
  8
0
  6
Continuous
 62
     8
370
    25
100
AcDbLine
 10
9.1877400992
 20
-26.6951422622
 30
0.0
 11
9.3637011072
 21
-26.9383799127
 31
0.0
  0
ARC
  5
1D3
330
193
100
AcDbEntity
  8
0
  6
Continuous
 62
     7
370
    25
100
AcDbCircle
 10
15.4469783214
 20
-26.7383799196
 30
0.0
 40
0.200000000000003
100
AcDbArc
 50
270.0
 51
31.309932474
  0
ARC
  5
1D4
330
193
100
AcDbEntity
  8
0
  6
Continuous
 62
     7
370
    25
100
AcDbCircle
 10
9.3637011122
 20
-26.7383799196
 30
0.0
 40
0.1999999999999971
100
AcDbArc
 50
217.0
 51
266.6407782724
  0
ARC
  5
1D5
330
193
100
AcDbEntity
  8
0
  6
Continuous
 62
     7
370
    25
100
AcDbCircle
 10
-3.3167726294
 20
-9.9036025929
 30
0.0
 40
0.1843789486291557
100
AcDbArc
 50
186.4070032296
 51
275.2193119533
  0
ARC
  5
1D6
330
193
100
AcDbEntity
  8
0
  6
Continuous
 62
     7
370
    25
100
AcDbCircle
 10
4.6086990705
 20
-10.7700693908
 30
0.0
 40
1.13291426308048
100
AcDbArc
 50
37.0663621199
 51
53.6073554369
  0
ARC
  5
1D7
330
193
100
AcDbEntity
  8
0
  6
Continuous
 62
     7
370
    25
100
AcDbCircle
 10
-3.3167666691
 20
-9.9125151716
 30
0.0
 40
0.1843838502614955
100
AcDbArc
 50
186.4039691819
 51
275.2173129908
  0
ARC
  5
1D8
330
193
100
AcDbEntity
  8
0
  6
Continuous
 62
     7
370
    25
100
AcDbCircle
 10
-3.3
 20
-9.9330809361
 30
0.0
 40
0.2000000000004664
100
AcDbArc
 50
180.0
 51
217.0
  0
ARC
  5
1D9
330
193
100
AcDbEntity
  8
0
  6
Continuous
 62
     7
370
    25
100
AcDbCircle
 10
-3.3477771621
 20
-9.9547397465
 30
0.0
 40
0.1492491441113632
100
AcDbArc
 50
221.4020289229
 51
288.6699900758
  0
ARC
  5
1DA
330
193
100
AcDbEntity
  8
0
  6
Continuous
 62
     7
370
    25
100
AcDbCircle
 10
9.1718775466
 20
-26.5139567744
 30
0.0
 40
0.1818785352179712
100
AcDbArc
 50
217.7216449387
 51
275.003413286
  0
ARC
  5
1DB
330
193
100
AcDbEntity
  8
0
  6
Continuous
 62
     7
370
    25
100
AcDbCircle
 10
15.2994763912
 20
-26.4952407927
 30
0.0
 40
0.1999763301210272
100
AcDbArc
 50
271.5677928884
 51
28.1361373784
  0
ARC
  5
1DC
330
193
100
AcDbEntity
  8
0
  6
Continuous
 62
     7
370
    25
100
AcDbCircle
 10
-3.3
 20
-0.2
 30
0.0
 40
0.1999999999999984
100
AcDbArc
 50
90.0
 51
180.0
  0
ARC
  5
1DD
330
193
100
AcDbEntity
  8
0
  6
Continuous
 62
     7
370
    25
100
AcDbCircle
 10
3.3360392195
 20
-0.2
 30
0.0
 40
0.1999999999999997
100
AcDbArc
 50
11.309932474
 51
90.0
  0
VIEWPORT
  5
43D
330
193
100
AcDbEntity
  8
0
100
AcDbViewport
 10
0.0
 20
0.0
 30
0.0
 40
205.6
 41
156.0
 68
     1
 69
     1
 12
0.0180555842
 22
-13.4691899598
 13
0.0
 23
0.0
 14
10.0
 24
10.0
 15
10.0
 25
10.0
 16
0.0
 26
0.0
 36
1.0
 17
0.0
 27
0.0
 37
0.0
 42
50.0
 43
0.0
 44
0.0
 45
193.3950521986
 50
0.0
 51
0.0
 72
   100
 90
   557152
  1

281
     0
 71
     1
 74
     0
110
0.0
120
0.0
130
0.0
111
1.0
121
0.0
131
0.0
112
0.0
122
1.0
132
0.0
 79
     0
146
0.0
  0
ENDBLK
  5
196
330
193
100
AcDbEntity
  8
0
100
AcDbBlockEnd
  0
BLOCK
  5
1E0
330
1DE
100
AcDbEntity
  8
0
100
AcDbBlockBegin
  2
*Paper_Space3
 70
     0
 10
0.0
 20
0.0
 30
0.0
  3
*Paper_Space3
  1

  0
LWPOLYLINE
  5
1E8
330
1DE
100
AcDbEntity
  8
0
  6
Continuous
 62
     7
370
    25
100
AcDbPolyline
 90
        9
 70
   128
 43
0.0
 10
-91.8117508845
 20
15.3049476902
 10
-91.8187076035
 20
15.3556722121
 10
-91.8210195333
 20
15.4029611437
 10
-91.8185300862
 20
15.4436115885
 10
-91.8114078732
 20
15.4748702773
 10
-91.8001352845
 20
15.4946200476
 10
-91.7854758165
 20
15.5015232404
 10
-91.7684223603
 20
15.4951122999
 10
-91.7501299528
 20
15.4758214415
  0
LWPOLYLINE
  5
1EA
330
1DE
100
AcDbEntity
  8
0
  6
Continuous
 62
     7
370
    25
100
AcDbPolyline
 90
        4
 70
   128
 43
0.0
 10
-89.8847969582
 20
15.6377368144
 10
-89.8851041999
 20
15.6377134793
 10
-89.8895686317
 20
15.6299492186
 10
-89.894366583
 20
15.6088396411
  0
SPLINE
  5
1FC
330
1DE
100
AcDbEntity
  8
0
  6
Continuous
 62
     7
370
    25
100
AcDbSpline
210
0.0
220
0.0
230
1.0
 70
     8
 71
     3
 72
     8
 73
     4
 74
     0
 42
0.000000001
 43
0.00000001
 40
0.0
 40
0.0
 40
0.0
 40
0.0
 40
0.0000453377850437
 40
0.0000453377850437
 40
0.0000453377850437
 40
0.0000453377850437
 10
-124.8413256270231
 20
5.522567827752872
 30
0.0
 10
-124.853566785714
 20
5.520829741249968
 30
0.0
 10
-124.8657194495013
 20
5.517489984524675
 30
0.0
 10
-124.8774024665147
 20
5.512694332253592
 30
0.0
  0
LWPOLYLINE
  5
207
330
1DE
100
AcDbEntity
  8
0
  6
Continuous
 62
     7
370
    25
100
AcDbPolyline
 90
        9
 70
   128
 43
0.0
 10
-124.8648486684
 20
-3.3
 10
-124.8626232974
 20
-3.3390180644
 10
-124.8560327039
 20
-3.3765366865
 10
-124.8453301608
 20
-3.4111140466
 10
-124.8309269608
 20
-3.4414213562
 10
-124.8133766109
 20
-3.4662939225
 10
-124.7933535611
 20
-3.4847759065
 10
-124.771627286
 20
-3.4961570561
 10
-124.7490327142
 20
-3.5
  0
LWPOLYLINE
  5
209
330
1DE
100
AcDbEntity
  8
0
  6
Continuous
 62
     7
370
    25
100
AcDbPolyline
 90
        9
 70
   128
 43
0.0
 10
-124.8774024665
 20
-3.3
 10
-124.8751766999
 20
-3.3390180644
 10
-124.8685849351
 20
-3.3765366865
 10
-124.8578804899
 20
-3.4111140466
 10
-124.8434747301
 20
-3.4414213562
 10
-124.825921261
 20
-3.4662939225
 10
-124.8058946526
 20
-3.4847759065
 10
-124.7841645161
 20
-3.4961570561
 10
-124.7615659287
 20
-3.5
  0
LINE
  5
211
330
1DE
100
AcDbEntity
  8
0
  6
Continuous
 62
     7
370
    25
100
AcDbLine
 10
120.1515135136
 20
5.5763693062
 30
0.0
 11
-89.8847969582
 21
15.6377368144
 31
0.0
  0
LINE
  5
212
330
1DE
100
AcDbEntity
  8
0
  6
Continuous
 62
     7
370
    25
100
AcDbLine
 10
-124.9615659287
 20
5.3605838582
 30
0.0
 11
-124.9615659287
 21
-3.3
 31
0.0
  0
LINE
  5
213
330
1DE
100
AcDbEntity
  8
0
  6
Continuous
 62
     7
370
    25
100
AcDbLine
 10
124.9254547603
 20
-3.3
 30
0.0
 11
124.9254547603
 21
5.3399489049
 31
0.0
  0
LINE
  5
214
330
1DE
100
AcDbEntity
  8
0
  6
Continuous
 62
     7
370
    25
100
AcDbLine
 10
-89.878664041
 20
15.4379658898
 30
0.0
 11
-89.878664041
 21
9.3525356575
 31
0.0
  0
LINE
  5
215
330
1DE
100
AcDbEntity
  8
0
  6
Continuous
 62
     7
370
    25
100
AcDbLine
 10
-91.8117508845
 20
9.1877400992
 30
0.0
 11
-91.8117508845
 21
15.3049476902
 31
0.0
  0
LINE
  5
216
330
1DE
100
AcDbEntity
  8
0
  6
Continuous
 62
     7
370
    25
100
AcDbLine
 10
-89.878664041
 20
9.3525356575
 30
0.0
 11
123.3180473787
 21
-3.3
 31
0.0
  0
LINE
  5
217
330
1DE
100
AcDbEntity
  8
0
  6
Continuous
 62
     7
370
    25
100
AcDbLine
 10
123.3023448366
 20
-3.459727102
 30
0.0
 11
-89.894366583
 21
9.1928085555
 31
0.0
  0
LINE
  5
218
330
1DE
100
AcDbEntity
  8
0
  6
Continuous
 62
     7
370
    25
100
AcDbLine
 10
113.9472894283
 20
5.6740930578
 30
0.0
 11
-89.878664041
 21
15.4379658898
 31
0.0
  0
LINE
  5
219
330
1DE
100
AcDbEntity
  8
0
  6
Continuous
 62
     7
370
    25
100
AcDbLine
 10
124.7411573023
 20
5.5040770738
 30
0.0
 11
113.9472894283
 21
5.6740930578
 31
0.0
  0
LINE
  5
21A
330
1DE
100
AcDbEntity
  8
0
  6
Continuous
 62
     7
370
    25
100
AcDbLine
 10
124.7411573023
 20
-3.3
 30
0.0
 11
124.7411573023
 21
5.5040770738
 31
0.0
  0
LINE
  5
21B
330
1DE
100
AcDbEntity
  8
0
  6
Continuous
 62
     7
370
    25
100
AcDbLine
 10
123.3180473787
 20
-3.3
 30
0.0
 11
124.9254547603
 21
-3.3
 31
0.0
  0
LINE
  5
21C
330
1DE
100
AcDbEntity
  8
0
  6
Continuous
 62
     7
370
    25
100
AcDbLine
 10
-124.7490327142
 20
-3.459727102
 30
0.0
 11
123.3023448366
 21
-3.459727102
 31
0.0
  0
LINE
  5
21D
330
1DE
100
AcDbEntity
  8
0
  6
Continuous
 62
     7
370
    25
100
AcDbLine
 10
-123.8372446238
 20
5.6636206493
 30
0.0
 11
-124.841325627
 21
5.5225678278
 31
0.0
  0
LINE
  5
21E
330
1DE
100
AcDbEntity
  8
0
  6
Continuous
 62
     7
370
    25
100
AcDbLine
 10
-124.9615659287
 20
-3.3
 30
0.0
 11
-124.8648486684
 21
-3.3
 31
0.0
  0
LINE
  5
21F
330
1DE
100
AcDbEntity
  8
0
  6
Continuous
 62
     7
370
    25
100
AcDbLine
 10
-124.8774024665
 20
5.5126943323
 30
0.0
 11
-124.8774024665
 21
-3.3
 31
0.0
  0
LINE
  5
220
330
1DE
100
AcDbEntity
  8
0
  6
Continuous
 62
     7
370
    25
100
AcDbLine
 10
123.3023448366
 20
-3.459727102
 30
0.0
 11
123.3023448366
 21
-3.5
 31
0.0
  0
LINE
  5
221
330
1DE
100
AcDbEntity
  8
0
  6
Continuous
 62
     7
370
    25
100
AcDbLine
 10
-124.7490327142
 20
-3.459727102
 30
0.0
 11
-124.7490327142
 21
-3.5
 31
0.0
  0
LINE
  5
222
330
1DE
100
AcDbEntity
  8
0
  6
Continuous
 62
     7
370
    25
100
AcDbLine
 10
124.7254547603
 20
-3.5
 30
0.0
 11
-124.7615659287
 21
-3.5
 31
0.0
  0
ARC
  5
223
330
1DE
100
AcDbEntity
  8
0
  6
Continuous
 62
     7
370
    25
100
AcDbCircle
 10
-124.7615659287
 20
-3.3
 30
0.0
 40
0.1999999999999917
100
AcDbArc
 50
180.0
 51
270.0
  0
ARC
  5
224
330
1DE
100
AcDbEntity
  8
0
  6
Continuous
 62
     7
370
    25
100
AcDbCircle
 10
124.7254547603
 20
-3.3
 30
0.0
 40
0.2000000000000171
100
AcDbArc
 50
270.0
 51
360.0
  0
ARC
  5
225
330
1DE
100
AcDbEntity
  8
0
  6
Continuous
 62
     7
370
    25
100
AcDbCircle
 10
-90.2732215003
 20
7.059071402
 30
0.0
 40
8.388179088929302
100
AcDbArc
 50
87.3039653255
 51
100.5688174788
  0
ARC
  5
226
330
1DE
100
AcDbEntity
  8
0
  6
Continuous
 62
     7
370
    25
100
AcDbCircle
 10
-90.2730574997
 20
7.8804608595
 30
0.0
 40
7.737651155411992
100
AcDbArc
 50
87.1947478668
 51
101.0049712119
  0
ARC
  5
227
330
1DE
100
AcDbEntity
  8
0
  6
Continuous
 62
     7
370
    25
100
AcDbCircle
 10
-90.2724827687
 20
2.91949953
 30
0.0
 40
6.28469394473242
100
AcDbArc
 50
86.5507384708
 51
103.598602142
  0
ARC
  5
228
330
1DE
100
AcDbEntity
  8
0
  6
Continuous
 62
     7
370
    25
100
AcDbCircle
 10
-91.3265823539
 20
9.2831628142
 30
0.0
 40
0.4944633430843126
100
AcDbArc
 50
191.1268841497
 51
211.0652304941
  0
ARC
  5
229
330
1DE
100
AcDbEntity
  8
0
  6
Continuous
 62
     7
370
    25
100
AcDbCircle
 10
-90.2726697586
 20
2.5541492031
 30
0.0
 40
6.809794335290144
100
AcDbArc
 50
86.6830893864
 51
103.0622726474
  0
ARC
  5
22A
330
1DE
100
AcDbEntity
  8
0
  6
Continuous
 62
     7
370
    25
100
AcDbCircle
 10
-91.5870936086
 20
9.4398535167
 30
0.0
 40
1.710659520823988
100
AcDbArc
 50
351.6965931385
 51
357.0741577925
  0
ARC
  5
22B
330
1DE
100
AcDbEntity
  8
0
  6
Continuous
 62
     7
370
    25
100
AcDbCircle
 10
121.609617811
 20
-3.2126821408
 30
0.0
 40
1.710659520815581
100
AcDbArc
 50
351.6965931385
 51
357.0741577925
  0
ARC
  5
22C
330
1DE
100
AcDbEntity
  8
0
  6
Continuous
 62
     7
370
    25
100
AcDbCircle
 10
-58.9204298731
 20
-127.5683355165
 30
0.0
 40
140.4861261285268
100
AcDbArc
 50
103.514204465
 51
117.9419824157
  0
ARC
  5
22D
330
1DE
100
AcDbEntity
  8
0
  6
Continuous
 62
     7
370
    25
100
AcDbCircle
 10
-124.5503976209
 20
-3.1938476519
 30
0.0
 40
0.3318851944836443
100
AcDbArc
 50
198.6536476287
 51
233.2370677234
  0
ARC
  5
22E
330
1DE
100
AcDbEntity
  8
0
  6
Continuous
 62
     7
370
    25
100
AcDbCircle
 10
-58.8409436799
 20
-128.0679013447
 30
0.0
 40
141.1601403934378
100
AcDbArc
 50
103.5073580189
 51
117.8866206171
  0
ARC
  5
22F
330
1DE
100
AcDbEntity
  8
0
  6
Continuous
 62
     7
370
    25
100
AcDbCircle
 10
-60.8112187553
 20
-145.6792258795
 30
0.0
 40
163.9418711989742
100
AcDbArc
 50
100.8999542195
 51
112.6090597828
  0
ARC
  5
230
330
1DE
100
AcDbEntity
  8
0
  6
Continuous
 62
     7
370
    25
100
AcDbCircle
 10
-60.9086465486
 20
-144.5918214751
 30
0.0
 40
163.0118014361393
100
AcDbArc
 50
100.9059757265
 51
112.871513487
  0
ARC
  5
231
330
1DE
100
AcDbEntity
  8
0
  6
Continuous
 62
     7
370
    25
100
AcDbCircle
 10
122.6694309091
 20
-3.3496917877
 30
0.0
 40
0.6505171776084234
100
AcDbArc
 50
346.6405395588
 51
4.3809848679
  0
ARC
  5
232
330
1DE
100
AcDbEntity
  8
0
  6
Continuous
 62
     7
370
    25
100
AcDbCircle
 10
124.0925408327
 20
-3.3496917877
 30
0.0
 40
0.6505171776084094
100
AcDbArc
 50
346.6405395588
 51
4.3809848679
  0
ARC
  5
233
330
1DE
100
AcDbEntity
  8
0
  6
Continuous
 62
     7
370
    25
100
AcDbCircle
 10
-124.8030269978
 20
5.3722027624
 30
0.0
 40
0.1589641203016797
100
AcDbArc
 50
117.8964997782
 51
184.1915644035
  0
ARC
  5
234
330
1DE
100
AcDbEntity
  8
0
  6
Continuous
 62
     7
370
    25
100
AcDbCircle
 10
124.7754737003
 20
5.3531151752
 30
0.0
 40
0.1505578593728709
100
AcDbArc
 50
354.9830812028
 51
79.2268977151
  0
ARC
  5
235
330
1DE
100
AcDbEntity
  8
0
  6
Continuous
 62
     7
370
    25
100
AcDbCircle
 10
124.7277675319
 20
4.5910989637
 30
0.0
 40
0.9130762922614098
100
AcDbArc
 50
85.2349976978
 51
89.1597582422
  0
ARC
  5
236
330
1DE
100
AcDbEntity
  8
0
  6
Continuous
 62
     8
370
    25
100
AcDbCircle
 10
-90.5138864793
 20
15.5184443223
 30
0.0
 40
0.6403001829779539
100
AcDbArc
 50
352.7794768108
 51
10.7373507065
  0
VIEWPORT
  5
43F
330
1DE
100
AcDbEntity
  8
0
100
AcDbViewport
 10
0.0
 20
0.0
 30
0.0
 40
205.6
 41
156.0
 68
     1
 69
     1
 12
0.0180555842
 22
-13.4691899598
 13
0.0
 23
0.0
 14
10.0
 24
10.0
 15
10.0
 25
10.0
 16
0.0
 26
0.0
 36
1.0
 17
0.0
 27
0.0
 37
0.0
 42
50.0
 43
0.0
 44
0.0
 45
193.3950521986
 50
0.0
 51
0.0
 72
   100
 90
   557152
  1

281
     0
 71
     1
 74
     0
110
0.0
120
0.0
130
0.0
111
1.0
121
0.0
131
0.0
112
0.0
122
1.0
132
0.0
 79
     0
146
0.0
  0
ENDBLK
  5
1E1
330
1DE
100
AcDbEntity
  8
0
100
AcDbBlockEnd
  0
BLOCK
  5
239
330
237
100
AcDbEntity
  8
0
100
AcDbBlockBegin
  2
*Paper_Space4
 70
     0
 10
0.0
 20
0.0
 30
0.0
  3
*Paper_Space4
  1

  0
SPLINE
  5
242
330
237
100
AcDbEntity
  8
0
  6
Continuous
 62
     7
370
    25
100
AcDbSpline
210
0.0
220
0.0
230
1.0
 70
     8
 71
     3
 72
    17
 73
    13
 74
     0
 42
0.000000001
 43
0.00000001
 40
0.0
 40
0.0
 40
0.0
 40
0.0
 40
0.048692706083064
 40
0.1634613078311214
 40
0.2773536826896066
 40
0.3903942884077432
 40
0.5026159841929122
 40
0.6140552336753263
 40
0.7247519131673675
 40
0.8347491097019044
 40
0.944092909808183
 40
1.0
 40
1.0
 40
1.0
 40
1.0
 10
-91.93578842184509
 20
40.16467161372646
 30
0.0
 10
-91.74232455461791
 20
39.61395426369541
 30
0.0
 10
-91.09286677543683
 20
37.76519732404618
 30
0.0
 10
-89.90767700906659
 20
34.67964181499855
 30
0.0
 10
-88.34484787479992
 20
30.94858184477307
 30
0.0
 10
-86.6820923245416
 20
27.32696913901091
 30
0.0
 10
-84.92486662301167
 20
23.81618610713102
 30
0.0
 10
-83.07481305579665
 20
20.41973711680774
 30
0.0
 10
-81.13511195609848
 20
17.13971804467097
 30
0.0
 10
-79.10668920990965
 20
13.98066121368424
 30
0.0
 10
-77.33755481141009
 20
11.42786299478379
 30
0.0
 10
-76.23281492056707
 20
9.944395624818634
 30
0.0
 10
-75.85906327175931
 20
9.44251424977943
 30
0.0
  0
SPLINE
  5
243
330
237
100
AcDbEntity
  8
0
  6
Continuous
 62
     7
370
    25
100
AcDbSpline
210
0.0
220
0.0
230
1.0
 70
     8
 71
     3
 72
    10
 73
     6
 74
     0
 42
0.000000001
 43
0.00000001
 40
0.0
 40
0.0
 40
0.0
 40
0.0
 40
0.2255169489827467
 40
0.6429495807496628
 40
1.0
 40
1.0
 40
1.0
 40
1.0
 10
-75.85906327175933
 20
9.442514249779423
 30
0.0
 10
-75.77658510898374
 20
9.340095797368658
 30
0.0
 10
-75.54143958924885
 20
9.048100444755185
 30
0.0
 10
-75.11251816088468
 20
8.67071864086248
 30
0.0
 10
-74.73530591841487
 20
8.478106214177256
 30
0.0
 10
-74.56140438610463
 20
8.389308470171814
 30
0.0
  0
LWPOLYLINE
  5
24B
330
237
100
AcDbEntity
  8
0
  6
Continuous
 62
     7
370
    25
100
AcDbPolyline
 90
        9
 70
   128
 43
0.0
 10
81.7648427206
 20
-59.8574917171
 10
81.9684531206
 20
-59.9837405058
 10
82.0325915405
 20
-60.0466179749
 10
81.9552700181
 20
-60.0441752454
 10
81.7388851242
 20
-59.9764880293
 10
81.3901436808
 20
-59.8456542833
 10
80.9198548846
 20
-59.6557291826
 10
80.3425952768
 20
-59.4125994315
 10
79.7293939765
 20
-59.1470794816
  0
SPLINE
  5
24D
330
237
100
AcDbEntity
  8
0
  6
Continuous
 62
     7
370
    25
100
AcDbSpline
210
0.0
220
0.0
230
1.0
 70
     8
 71
     3
 72
    16
 73
    12
 74
     0
 42
0.000000001
 43
0.00000001
 40
0.0
 40
0.0
 40
0.0
 40
0.0
 40
0.2305309425485841
 40
0.4736031456855381
 40
0.63035128220054
 40
0.7022900403142216
 40
0.762323818084653
 40
0.8069953145385165
 40
0.851741745866462
 40
0.910869844657828
 40
1.0
 40
1.0
 40
1.0
 40
1.0
 10
-91.93667267138774
 20
40.16436215651379
 30
0.0
 10
-91.94582752423476
 20
40.18904480666942
 30
0.0
 10
-91.96463526890756
 20
40.23975288354763
 30
0.0
 10
-91.98177587363922
 20
40.30952186834762
 30
0.0
 10
-91.98913696694494
 20
40.36212584503524
 30
0.0
 10
-91.98783637131964
 20
40.39293153023625
 30
0.0
 10
-91.98323336030522
 20
40.40983077068936
 30
0.0
 10
-91.97546080340915
 20
40.42020717676935
 30
0.0
 10
-91.96477185322698
 20
40.42511660867979
 30
0.0
 10
-91.94887425065335
 20
40.42407970652428
 30
0.0
 10
-91.93674294666026
 20
40.41784014261751
 30
0.0
 10
-91.92944982820471
 20
40.41408903072475
 30
0.0
  0
SPLINE
  5
263
330
237
100
AcDbEntity
  8
0
  6
Continuous
 62
     7
370
    25
100
AcDbSpline
210
0.0
220
0.0
230
1.0
 70
     8
 71
     3
 72
     8
 73
     4
 74
     0
 42
0.000000001
 43
0.00000001
 40
0.0
 40
0.0
 40
0.0
 40
0.0
 40
0.0000453377850437
 40
0.0000453377850437
 40
0.0000453377850437
 40
0.0000453377850437
 10
-92.18119308375249
 20
40.4488549991301
 30
0.0
 10
-92.18861987731994
 20
40.46165747653785
 30
0.0
 10
-92.19485154366544
 20
40.47502916959797
 30
0.0
 10
-92.19972164597927
 20
40.48853357841102
 30
0.0
  0
LWPOLYLINE
  5
264
330
237
100
AcDbEntity
  8
0
  6
Continuous
 62
     8
370
    25
100
AcDbPolyline
 90
        7
 70
   128
 43
0.0
 10
-74.5614043861
 20
8.3893084702
 10
-74.5692938512
 20
8.3933721565
 10
-74.5929664808
 20
8.415564418
 10
-74.6088703554
 20
8.4486674663
 10
-74.6158999509
 20
8.4903802129
 10
-74.6135666195
 20
8.537803084
 10
-74.602032558
 20
8.5876395785
  0
LWPOLYLINE
  5
265
330
237
100
AcDbEntity
  8
0
  6
Continuous
 62
     8
370
    25
100
AcDbPolyline
 90
        6
 70
   128
 43
0.0
 10
90.7213277137
 20
-57.5356565466
 10
90.7220530611
 20
-57.5442240443
 10
90.7172227227
 20
-57.5594694422
 10
90.7051078727
 20
-57.57571951
 10
90.6861740783
 20
-57.5923497669
 10
90.6611489543
 20
-57.6087211212
  0
LWPOLYLINE
  5
266
330
237
100
AcDbEntity
  8
0
  6
Continuous
 62
     8
370
    25
100
AcDbPolyline
 90
        6
 70
   128
 43
0.0
 10
88.3402510144
 20
-48.3051488328
 10
88.3409763618
 20
-48.3137163305
 10
88.3361460233
 20
-48.3289617284
 10
88.3240311734
 20
-48.3452117962
 10
88.3050973789
 20
-48.361842053
 10
88.280072255
 20
-48.3782134074
  0
LWPOLYLINE
  5
26A
330
237
100
AcDbEntity
  8
0
  6
Continuous
 62
     8
370
    25
100
AcDbPolyline
 90
        6
 70
   128
 43
0.0
 10
-75.8590512747
 20
9.4424983463
 10
-75.8628548085
 20
9.4484694485
 10
-75.868849081
 20
9.4740362396
 10
-75.8633645663
 20
9.505623427
 10
-75.8467727323
 20
9.541091599
 10
-75.8201973501
 20
9.5780384835
  0
LINE
  5
26E
330
237
100
AcDbEntity
  8
0
  6
Continuous
 62
     7
370
    25
100
AcDbLine
 10
-74.5614043861
 20
8.3893084702
 30
0.0
 11
79.7293939765
 21
-59.1470794816
 31
0.0
  0
LINE
  5
26F
330
237
100
AcDbEntity
  8
0
  6
Continuous
 62
     7
370
    25
100
AcDbLine
 10
90.7213277137
 20
-57.5356565466
 30
0.0
 11
88.3402510144
 21
-48.3051488328
 31
0.0
  0
LINE
  5
270
330
237
100
AcDbEntity
  8
0
  6
Continuous
 62
     7
370
    25
100
AcDbLine
 10
84.4209247329
 20
-61.3418939342
 30
0.0
 11
90.6276590987
 21
-57.7588224526
 31
0.0
  0
LINE
  5
271
330
237
100
AcDbEntity
  8
0
  6
Continuous
 62
     7
370
    25
100
AcDbLine
 10
88.2465823994
 20
-48.1818951939
 30
0.0
 11
-83.379693897
 21
50.8958451831
 31
0.0
  0
LINE
  5
272
330
237
100
AcDbEntity
  8
0
  6
Continuous
 62
     7
370
    25
100
AcDbLine
 10
-88.3498872648
 20
48.1053331669
 30
0.0
 11
-92.1708348531
 21
40.6845671094
 31
0.0
  0
LINE
  5
273
330
237
100
AcDbEntity
  8
0
  6
Continuous
 62
     7
370
    25
100
AcDbLine
 10
-83.5796776436
 20
50.8958451831
 30
0.0
 11
-88.2720659759
 21
48.1869870585
 31
0.0
  0
LINE
  5
274
330
237
100
AcDbEntity
  8
0
  6
Continuous
 62
     7
370
    25
100
AcDbLine
 10
84.3596750196
 20
-61.3604510101
 30
0.0
 11
83.3155271448
 21
-51.1119911271
 31
0.0
  0
LINE
  5
275
330
237
100
AcDbEntity
  8
0
  6
Continuous
 62
     7
370
    25
100
AcDbLine
 10
84.3133479984
 20
-61.3486865401
 30
0.0
 11
78.2404484768
 21
-58.4953361374
 31
0.0
  0
LINE
  5
276
330
237
100
AcDbEntity
  8
0
  6
Continuous
 62
     7
370
    25
100
AcDbLine
 10
-91.9294498282
 20
40.4140890307
 30
0.0
 11
81.7648427206
 21
-59.8574917171
 31
0.0
  0
LINE
  5
277
330
237
100
AcDbEntity
  8
0
  6
Continuous
 62
     7
370
    25
100
AcDbLine
 10
-91.8147301973
 20
39.8202678153
 30
0.0
 11
-92.1811930838
 21
40.4488549991
 31
0.0
  0
LINE
  5
278
330
237
100
AcDbEntity
  8
0
  6
Continuous
 62
     7
370
    25
100
AcDbLine
 10
-88.3107491516
 20
47.9657492499
 30
0.0
 11
-92.1811930838
 21
40.4488549991
 31
0.0
  0
LINE
  5
279
330
237
100
AcDbEntity
  8
0
  6
Continuous
 62
     7
370
    25
100
AcDbLine
 10
83.3155271448
 20
-51.1119911271
 30
0.0
 11
-88.3107491516
 21
47.9657492499
 31
0.0
  0
LINE
  5
27A
330
237
100
AcDbEntity
  8
0
  6
Continuous
 62
     7
370
    25
100
AcDbLine
 10
83.5876839227
 20
-51.087071532
 30
0.0
 11
84.6081453653
 21
-61.1030457144
 31
0.0
  0
LINE
  5
27B
330
237
100
AcDbEntity
  8
0
  6
Continuous
 62
     7
370
    25
100
AcDbLine
 10
88.280072255
 20
-48.3782134074
 30
0.0
 11
83.5876839227
 21
-51.087071532
 31
0.0
  0
LINE
  5
27C
330
237
100
AcDbEntity
  8
0
  6
Continuous
 62
     7
370
    25
100
AcDbLine
 10
90.6611489543
 20
-57.6087211212
 30
0.0
 11
88.280072255
 21
-48.3782134074
 31
0.0
  0
LINE
  5
27D
330
237
100
AcDbEntity
  8
0
  6
Continuous
 62
     7
370
    25
100
AcDbLine
 10
84.6081453653
 20
-61.1030457144
 30
0.0
 11
90.6611489543
 21
-57.6087211212
 31
0.0
  0
LINE
  5
27E
330
237
100
AcDbEntity
  8
0
  6
Continuous
 62
     7
370
    25
100
AcDbLine
 10
-74.602032558
 20
8.5876395785
 30
0.0
 11
81.7648427206
 21
-59.8574917171
 31
0.0
  0
LINE
  5
27F
330
237
100
AcDbEntity
  8
0
  6
Continuous
 62
     7
370
    25
100
AcDbLine
 10
-88.1720741026
 20
48.1770854484
 30
0.0
 11
83.4542021938
 21
-50.9006549285
 31
0.0
  0
LINE
  5
280
330
237
100
AcDbEntity
  8
0
  6
Continuous
 62
     7
370
    25
100
AcDbLine
 10
83.4542021938
 20
-50.9006549285
 30
0.0
 11
88.1465905261
 21
-48.191796804
 31
0.0
  0
LINE
  5
281
330
237
100
AcDbEntity
  8
0
  6
Continuous
 62
     7
370
    25
100
AcDbLine
 10
-83.4796857703
 20
50.885943573
 30
0.0
 11
-88.1720741026
 21
48.1770854484
 31
0.0
  0
LINE
  5
282
330
237
100
AcDbEntity
  8
0
  6
Continuous
 62
     7
370
    25
100
AcDbLine
 10
88.1465905261
 20
-48.191796804
 30
0.0
 11
-83.4796857703
 21
50.885943573
 31
0.0
  0
ARC
  5
283
330
237
100
AcDbEntity
  8
0
  6
Continuous
 62
     7
370
    25
100
AcDbCircle
 10
88.1465905261
 20
-48.3551049663
 30
0.0
 40
0.2000000000000293
100
AcDbArc
 50
14.4645336217
 51
60.0026882663
  0
ARC
  5
284
330
237
100
AcDbEntity
  8
0
  6
Continuous
 62
     7
370
    25
100
AcDbCircle
 10
90.5276672255
 20
-57.5856126802
 30
0.0
 40
0.1999999999999059
100
AcDbArc
 50
299.9973117336
 51
14.4645336217
  0
ARC
  5
285
330
237
100
AcDbEntity
  8
0
  6
Continuous
 62
     7
370
    25
100
AcDbCircle
 10
-88.1720741026
 20
48.013777286
 30
0.0
 40
0.20000000000023
100
AcDbArc
 50
119.9973117337
 51
152.756090891
  0
ARC
  5
286
330
237
100
AcDbEntity
  8
0
  6
Continuous
 62
     7
370
    25
100
AcDbCircle
 10
-83.4796857703
 20
50.7226354106
 30
0.0
 40
0.1999999999999618
100
AcDbArc
 50
60.0026882664
 51
119.9973117337
  0
ARC
  5
287
330
237
100
AcDbEntity
  8
0
  6
Continuous
 62
     7
370
    25
100
AcDbCircle
 10
84.3651941677
 20
-61.2416200289
 30
0.0
 40
0.1189590816002021
100
AcDbArc
 50
244.1617556131
 51
267.3407876922
  0
ARC
  5
288
330
237
100
AcDbEntity
  8
0
  6
Continuous
 62
     7
370
    25
100
AcDbCircle
 10
83.3885693923
 20
-50.4110886369
 30
0.0
 40
0.704698141475484
100
AcDbArc
 50
264.05058383
 51
286.4126312985
  0
ARC
  5
289
330
237
100
AcDbEntity
  8
0
  6
Continuous
 62
     7
370
    25
100
AcDbCircle
 10
84.2369684769
 20
-60.993378389
 30
0.0
 40
0.3870390222427757
100
AcDbArc
 50
288.4839625289
 51
343.5397826678
  0
ARC
  5
28A
330
237
100
AcDbEntity
  8
0
  6
Continuous
 62
     7
370
    25
100
AcDbCircle
 10
-73.3272958458
 20
11.3998873443
 30
0.0
 40
3.087667595731055
100
AcDbArc
 50
216.1598806203
 51
245.6161461272
  0
ARC
  5
28B
330
237
100
AcDbEntity
  8
0
  6
Continuous
 62
     7
370
    25
100
AcDbCircle
 10
14.4608226489
 20
76.3681987982
 30
0.0
 40
112.3013271823985
100
AcDbArc
 50
198.6724487948
 51
216.4941432896
  0
ARC
  5
28C
330
237
100
AcDbEntity
  8
0
  6
Continuous
 62
     7
370
    25
100
AcDbCircle
 10
83.6243698985
 20
-51.163482093
 30
0.0
 40
0.3131056788507746
100
AcDbArc
 50
122.9210778513
 51
170.5345779066
  0
ARC
  5
28D
330
237
100
AcDbEntity
  8
0
  6
Continuous
 62
     7
370
    25
100
AcDbCircle
 10
83.2842460146
 20
-51.1633477613
 30
0.0
 40
0.3128779750101727
100
AcDbArc
 50
14.1102825926
 51
57.0980681614
  0
ARC
  5
28E
330
237
100
AcDbEntity
  8
0
  6
Continuous
 62
     7
370
    25
100
AcDbCircle
 10
-88.0019063979
 20
47.9142582839
 30
0.0
 40
0.3131056788508412
100
AcDbArc
 50
122.9210778513
 51
170.5345779066
  0
ARC
  5
28F
330
237
100
AcDbEntity
  8
0
  6
Continuous
 62
     7
370
    25
100
AcDbCircle
 10
87.9766343469
 20
-48.4544896367
 30
0.0
 40
0.3128779750102533
100
AcDbArc
 50
14.1102825926
 51
57.0980681614
  0
ARC
  5
290
330
237
100
AcDbEntity
  8
0
  6
Continuous
 62
     7
370
    25
100
AcDbCircle
 10
-91.941482489
 20
40.5506254815
 30
0.0
 40
0.2655990711627588
100
AcDbArc
 50
149.7151000965
 51
193.5197526441
  0
ARC
  5
291
330
237
100
AcDbEntity
  8
0
  6
Continuous
 62
     8
370
    25
100
AcDbCircle
 10
90.5383391855
 20
-57.660107132
 30
0.0
 40
0.1331268621399457
100
AcDbArc
 50
312.1395261531
 51
22.7053885867
  0
ARC
  5
292
330
237
100
AcDbEntity
  8
0
  6
Continuous
 62
     8
370
    25
100
AcDbCircle
 10
88.2051745371
 20
-48.2735730698
 30
0.0
 40
0.1005954471803899
100
AcDbArc
 50
65.6928809539
 51
125.6175774752
  0
ARC
  5
293
330
237
100
AcDbEntity
  8
0
  6
Continuous
 62
     8
370
    25
100
AcDbCircle
 10
-83.4211017593
 20
50.8041673071
 30
0.0
 40
0.1005954471804221
100
AcDbArc
 50
65.6928809539
 51
125.6175774752
  0
ARC
  5
294
330
237
100
AcDbEntity
  8
0
  6
Continuous
 62
     8
370
    25
100
AcDbCircle
 10
-88.2305373615
 20
48.0635188877
 30
0.0
 40
0.1264627746117556
100
AcDbArc
 50
160.6920733299
 51
230.6339930687
  0
ARC
  5
295
330
237
100
AcDbEntity
  8
0
  6
Continuous
 62
     8
370
    25
100
AcDbCircle
 10
-88.2304110699
 20
48.0978039644
 30
0.0
 40
0.0984314759350682
100
AcDbArc
 50
53.6535909778
 51
115.0359505931
  0
ARC
  5
296
330
237
100
AcDbEntity
  8
0
  6
Continuous
 62
     8
370
    25
100
AcDbCircle
 10
-83.5380227376
 20
50.806662089
 30
0.0
 40
0.0984314759356833
100
AcDbArc
 50
53.653590978
 51
115.0359505929
  0
VIEWPORT
  5
441
330
237
100
AcDbEntity
  8
0
100
AcDbViewport
 10
0.0
 20
0.0
 30
0.0
 40
205.6
 41
156.0
 68
     1
 69
     1
 12
0.0180555842
 22
-13.4691899598
 13
0.0
 23
0.0
 14
10.0
 24
10.0
 15
10.0
 25
10.0
 16
0.0
 26
0.0
 36
1.0
 17
0.0
 27
0.0
 37
0.0
 42
50.0
 43
0.0
 44
0.0
 45
193.3950521986
 50
0.0
 51
0.0
 72
   100
 90
   557152
  1

281
     0
 71
     1
 74
     0
110
0.0
120
0.0
130
0.0
111
1.0
121
0.0
131
0.0
112
0.0
122
1.0
132
0.0
 79
     0
146
0.0
  0
ENDBLK
  5
23A
330
237
100
AcDbEntity
  8
0
100
AcDbBlockEnd
  0
BLOCK
  5
299
330
297
100
AcDbEntity
  8
0
100
AcDbBlockBegin
  2
*Paper_Space5
 70
     0
 10
0.0
 20
0.0
 30
0.0
  3
*Paper_Space5
  1

  0
LWPOLYLINE
  5
2A7
330
297
100
AcDbEntity
  8
0
  6
Continuous
 62
     7
370
    25
100
AcDbPolyline
 90
       10
 70
   128
 43
0.0
 10
104.5653510316
 20
-40.1932023269
 10
104.8207603848
 20
-40.2712691543
 10
104.9031861026
 20
-40.3193586434
 10
104.8100734105
 20
-40.3359802666
 10
104.5443083244
 20
-40.3206188389
 10
104.1141281992
 20
-40.2737504856
 10
103.5328664132
 20
-40.1968278854
 10
102.8185391011
 20
-40.0922352446
 10
101.9932867469
 20
-39.9632143986
 10
101.2199504292
 20
-39.8366949501
  0
SPLINE
  5
2AD
330
297
100
AcDbEntity
  8
0
  6
Continuous
 62
     7
370
    25
100
AcDbSpline
210
0.0
220
0.0
230
1.0
 70
     8
 71
     3
 72
    17
 73
    13
 74
     0
 42
0.000000001
 43
0.00000001
 40
0.0
 40
0.0
 40
0.0
 40
0.0
 40
0.1872273540627139
 40
0.5096272534861517
 40
0.664534046292393
 40
0.7644276202697227
 40
0.8102732667650383
 40
0.8485320222066075
 40
0.8770005930930304
 40
0.9055169190121704
 40
0.9431984968737922
 40
1.0
 40
1.0
 40
1.0
 40
1.0
 10
-112.5689837652532
 20
18.42947460627597
 30
0.0
 10
-112.5885161001839
 20
18.45668036462379
 30
0.0
 10
-112.6416825312042
 20
18.53073362449713
 30
0.0
 10
-112.6981252238602
 20
18.63617949871375
 30
0.0
 10
-112.7379775239548
 20
18.73112078815768
 30
0.0
 10
-112.7511146796636
 20
18.78289522328227
 30
0.0
 10
-112.752197112782
 20
18.81453183083549
 30
0.0
 10
-112.7481045649346
 20
18.83285484282396
 30
0.0
 10
-112.7396508377357
 20
18.84532645790341
 30
0.0
 10
-112.7272261742473
 20
18.85295988861614
 30
0.0
 10
-112.7080363087214
 20
18.8558336492627
 30
0.0
 10
-112.6929281123691
 20
18.85248644060421
 30
0.0
 10
-112.6838453405822
 20
18.85047415987531
 30
0.0
  0
LWPOLYLINE
  5
2C0
330
297
100
AcDbEntity
  8
0
  6
Continuous
 62
     7
370
    25
100
AcDbPolyline
 90
        9
 70
   128
 43
0.0
 10
-88.34272478
 20
-7.7853309125
 10
-88.3725503288
 20
-7.7987305361
 10
-88.3966645678
 20
-7.8011793997
 10
-88.4134342308
 20
-7.7925116409
 10
-88.4217235025
 20
-7.7733143299
 10
-88.4209709474
 20
-7.7448877078
 10
-88.4112275366
 20
-7.7091571199
 10
-88.3931531946
 20
-7.6685426118
 10
-88.3679721032
 20
-7.625795019
  0
SPLINE
  5
2C4
330
297
100
AcDbEntity
  8
0
  6
Continuous
 62
     7
370
    25
100
AcDbSpline
210
0.0
220
0.0
230
1.0
 70
     8
 71
     3
 72
     8
 73
     4
 74
     0
 42
0.000000001
 43
0.00000001
 40
0.0
 40
0.0
 40
0.0
 40
0.0
 40
0.0000453377850437
 40
0.0000453377850437
 40
0.0000453377850437
 40
0.0000453377850437
 10
-112.9892876590368
 20
18.82362251462768
 30
0.0
 10
-112.9993028046569
 20
18.83480574032547
 30
0.0
 10
-113.0084921916732
 20
18.84664638990071
 30
0.0
 10
-113.016586754834
 20
18.85875402348172
 30
0.0
  0
LWPOLYLINE
  5
2C5
330
297
100
AcDbEntity
  8
0
  6
Continuous
 62
     8
370
    25
100
AcDbPolyline
 90
        7
 70
   128
 43
0.0
 10
-86.7418950199
 20
-8.528438871
 10
-86.759739828
 20
-8.5197188365
 10
-86.7761155557
 20
-8.4976161258
 10
-86.7878282739
 20
-8.4639423527
 10
-86.7940637975
 20
-8.4210382784
 10
-86.7943886772
 20
-8.3718862895
 10
-86.7887803298
 20
-8.319903083
  0
LWPOLYLINE
  5
2C7
330
297
100
AcDbEntity
  8
0
  6
Continuous
 62
     8
370
    25
100
AcDbPolyline
 90
        5
 70
   128
 43
0.0
 10
112.0395377746
 20
-36.8323295424
 10
112.0402200396
 20
-36.834833379
 10
112.0395110665
 20
-36.849543249
 10
112.0315018888
 20
-36.8659926263
 10
112.0165002948
 20
-36.8835493705
  0
LWPOLYLINE
  5
2C8
330
297
100
AcDbEntity
  8
0
  6
Continuous
 62
     8
370
    25
100
AcDbPolyline
 90
        5
 70
   128
 43
0.0
 10
109.0613915624
 20
-27.7761242617
 10
109.0620738274
 20
-27.7786280982
 10
109.0613648543
 20
-27.7933379682
 10
109.0533556766
 20
-27.8097873455
 10
109.0383540826
 20
-27.8273440898
  0
LWPOLYLINE
  5
2CB
330
297
100
AcDbEntity
  8
0
  6
Continuous
 62
     8
370
    25
100
AcDbPolyline
 90
        8
 70
   128
 43
0.0
 10
-108.9797468292
 20
27.4236080268
 10
-109.0083265815
 20
27.444398506
 10
-109.032662759
 20
27.4664228196
 10
-109.0518955196
 20
27.4889028082
 10
-109.0653453345
 20
27.5110442124
 10
-109.0725369971
 20
27.5320647356
 10
-109.0732164126
 20
27.5512216839
 10
-109.0694875276
 20
27.5638313881
  0
LINE
  5
2CE
330
297
100
AcDbEntity
  8
0
  6
Continuous
 62
     7
370
    25
100
AcDbLine
 10
-86.7418950199
 20
-8.528438871
 30
0.0
 11
101.2199504292
 21
-39.8366949501
 31
0.0
  0
LINE
  5
2CF
330
297
100
AcDbEntity
  8
0
  6
Continuous
 62
     7
370
    25
100
AcDbLine
 10
107.8996422865
 20
-41.0295100022
 30
0.0
 11
111.9892428396
 21
-37.0379344898
 31
0.0
  0
LINE
  5
2D0
330
297
100
AcDbEntity
  8
0
  6
Continuous
 62
     7
370
    25
100
AcDbLine
 10
112.0395377746
 20
-36.8323295424
 30
0.0
 11
109.0613915624
 21
-27.7761242617
 31
0.0
  0
LINE
  5
2D1
330
297
100
AcDbEntity
  8
0
  6
Continuous
 62
     7
370
    25
100
AcDbLine
 10
108.923854034
 20
-27.6456037667
 30
0.0
 11
-105.7387583904
 21
30.6950946269
 31
0.0
  0
LINE
  5
2D2
330
297
100
AcDbEntity
  8
0
  6
Continuous
 62
     7
370
    25
100
AcDbLine
 10
-112.5688546673
 20
18.4295647045
 30
0.0
 11
-112.320012526
 21
18.05625258
 31
0.0
  0
LINE
  5
2D3
330
297
100
AcDbEntity
  8
0
  6
Continuous
 62
     7
370
    25
100
AcDbLine
 10
-109.0694875276
 20
27.5638313881
 30
0.0
 11
-113.0083663648
 21
19.1154073983
 31
0.0
  0
LINE
  5
2D4
330
297
100
AcDbEntity
  8
0
  6
Continuous
 62
     7
370
    25
100
AcDbLine
 10
-105.9309070605
 20
30.6452217337
 30
0.0
 11
-109.027915965
 21
27.6224460997
 31
0.0
  0
LINE
  5
2D5
330
297
100
AcDbEntity
  8
0
  6
Continuous
 62
     7
370
    25
100
AcDbLine
 10
-86.7887803298
 20
-8.319903083
 30
0.0
 11
104.5653510316
 21
-40.1932023269
 31
0.0
  0
LINE
  5
2D6
330
297
100
AcDbEntity
  8
0
  6
Continuous
 62
     7
370
    25
100
AcDbLine
 10
-112.6838453406
 20
18.8504741599
 30
0.0
 11
104.5653510316
 21
-40.1932023269
 31
0.0
  0
LINE
  5
2D7
330
297
100
AcDbEntity
  8
0
  6
Continuous
 62
     7
370
    25
100
AcDbLine
 10
107.8112792197
 20
-41.0803390175
 30
0.0
 11
105.6828655953
 21
-30.9170903667
 31
0.0
  0
LINE
  5
2D8
330
297
100
AcDbEntity
  8
0
  6
Continuous
 62
     7
370
    25
100
AcDbLine
 10
-112.1670889256
 20
17.9134955236
 30
0.0
 11
-112.989287659
 21
18.8236225146
 31
0.0
  0
LINE
  5
2D9
330
297
100
AcDbEntity
  8
0
  6
Continuous
 62
     7
370
    25
100
AcDbLine
 10
-108.9797468292
 20
27.4236080268
 30
0.0
 11
-112.989287659
 21
18.8236225146
 31
0.0
  0
LINE
  5
2DA
330
297
100
AcDbEntity
  8
0
  6
Continuous
 62
     7
370
    25
100
AcDbLine
 10
105.6828655953
 20
-30.9170903667
 30
0.0
 11
-108.9797468292
 21
27.4236080268
 31
0.0
  0
LINE
  5
2DB
330
297
100
AcDbEntity
  8
0
  6
Continuous
 62
     7
370
    25
100
AcDbLine
 10
107.7546126465
 20
-41.0798232389
 30
0.0
 11
99.7096827967
 21
-39.5851340778
 31
0.0
  0
LINE
  5
2DC
330
297
100
AcDbEntity
  8
0
  6
Continuous
 62
     7
370
    25
100
AcDbLine
 10
105.9413451782
 20
-30.8501197237
 30
0.0
 11
108.0214758666
 21
-40.7828156856
 31
0.0
  0
LINE
  5
2DD
330
297
100
AcDbEntity
  8
0
  6
Continuous
 62
     7
370
    25
100
AcDbLine
 10
109.0383540826
 20
-27.8273440898
 30
0.0
 11
105.9413451782
 21
-30.8501197237
 31
0.0
  0
LINE
  5
2DE
330
297
100
AcDbEntity
  8
0
  6
Continuous
 62
     7
370
    25
100
AcDbLine
 10
112.0165002948
 20
-36.8835493705
 30
0.0
 11
109.0383540826
 21
-27.8273440898
 31
0.0
  0
LINE
  5
2DF
330
297
100
AcDbEntity
  8
0
  6
Continuous
 62
     7
370
    25
100
AcDbLine
 10
108.0214758666
 20
-40.7828156856
 30
0.0
 11
112.0165002948
 21
-36.8835493705
 31
0.0
  0
LINE
  5
2E0
330
297
100
AcDbEntity
  8
0
  6
Continuous
 62
     7
370
    25
100
AcDbLine
 10
-108.8882203333
 20
27.6507532853
 30
0.0
 11
105.7743920912
 21
-30.6899451083
 31
0.0
  0
LINE
  5
2E1
330
297
100
AcDbEntity
  8
0
  6
Continuous
 62
     7
370
    25
100
AcDbLine
 10
105.7743920912
 20
-30.6899451083
 30
0.0
 11
108.8714009957
 21
-27.6671694743
 31
0.0
  0
LINE
  5
2E2
330
297
100
AcDbEntity
  8
0
  6
Continuous
 62
     7
370
    25
100
AcDbLine
 10
-105.7912114288
 20
30.6735289192
 30
0.0
 11
-108.8882203333
 21
27.6507532853
 31
0.0
  0
LINE
  5
2E3
330
297
100
AcDbEntity
  8
0
  6
Continuous
 62
     7
370
    25
100
AcDbLine
 10
108.8714009957
 20
-27.6671694743
 30
0.0
 11
-105.7912114288
 21
30.6735289192
 31
0.0
  0
ARC
  5
2E4
330
297
100
AcDbEntity
  8
0
  6
Continuous
 62
     7
370
    25
100
AcDbCircle
 10
108.8714009957
 20
-27.8386029345
 30
0.0
 40
0.2000000000000113
100
AcDbArc
 50
18.2035250685
 51
74.7954868413
  0
ARC
  5
2E5
330
297
100
AcDbEntity
  8
0
  6
Continuous
 62
     7
370
    25
100
AcDbCircle
 10
111.8495472079
 20
-36.8948082152
 30
0.0
 40
0.2000000000000068
100
AcDbArc
 50
314.305033619
 51
18.2035250685
  0
ARC
  5
2E6
330
297
100
AcDbEntity
  8
0
  6
Continuous
 62
     7
370
    25
100
AcDbCircle
 10
-108.8882203333
 20
27.4793198251
 30
0.0
 40
0.2000000000009442
100
AcDbArc
 50
134.3050336191
 51
155.0038213432
  0
ARC
  5
2E7
330
297
100
AcDbEntity
  8
0
  6
Continuous
 62
     7
370
    25
100
AcDbCircle
 10
-105.7912114288
 20
30.5020954591
 30
0.0
 40
0.2000000000000389
100
AcDbArc
 50
74.7954868413
 51
134.305033619
  0
ARC
  5
2E8
330
297
100
AcDbEntity
  8
0
  6
Continuous
 62
     7
370
    25
100
AcDbCircle
 10
-86.1943436272
 20
-4.8239836327
 30
0.0
 40
3.54609754468252
100
AcDbArc
 50
232.1959045204
 51
260.3498776203
  0
ARC
  5
2E9
330
297
100
AcDbEntity
  8
0
  6
Continuous
 62
     7
370
    25
100
AcDbCircle
 10
-22.4347737225
 20
77.3314374078
 30
0.0
 40
107.5403086769
100
AcDbArc
 50
212.9430428982
 51
232.1858491608
  0
ARC
  5
2EA
330
297
100
AcDbEntity
  8
0
  6
Continuous
 62
     7
370
    25
100
AcDbCircle
 10
107.7843719412
 20
-40.9234112067
 30
0.0
 40
0.1592178992304771
100
AcDbArc
 50
259.2275350338
 51
279.7294825415
  0
ARC
  5
2EB
330
297
100
AcDbEntity
  8
0
  6
Continuous
 62
     7
370
    25
100
AcDbCircle
 10
105.6249754033
 20
-30.1613590298
 30
0.0
 40
0.7579453331294853
100
AcDbArc
 50
274.3803911504
 51
294.6708293453
  0
ARC
  5
2EC
330
297
100
AcDbEntity
  8
0
  6
Continuous
 62
     7
370
    25
100
AcDbCircle
 10
107.6643184619
 20
-40.7535006496
 30
0.0
 40
0.3583584561455555
100
AcDbArc
 50
294.2107582978
 51
355.3077518429
  0
ARC
  5
2ED
330
297
100
AcDbEntity
  8
0
  6
Continuous
 62
     7
370
    25
100
AcDbCircle
 10
106.0812131897
 20
-30.945588983
 30
0.0
 40
0.399365718542964
100
AcDbArc
 50
140.1988787111
 51
175.9079126138
  0
ARC
  5
2EE
330
297
100
AcDbEntity
  8
0
  6
Continuous
 62
     7
370
    25
100
AcDbCircle
 10
105.7031704272
 20
-30.9312773375
 30
0.0
 40
0.2516222769398917
100
AcDbArc
 50
18.8164501951
 51
73.5576821991
  0
ARC
  5
2EF
330
297
100
AcDbEntity
  8
0
  6
Continuous
 62
     7
370
    25
100
AcDbCircle
 10
-108.5813992347
 20
27.3951094106
 30
0.0
 40
0.3993657185433137
100
AcDbArc
 50
140.1988787112
 51
175.9079126138
  0
ARC
  5
2F0
330
297
100
AcDbEntity
  8
0
  6
Continuous
 62
     7
370
    25
100
AcDbCircle
 10
108.8001793317
 20
-27.9085017035
 30
0.0
 40
0.2516222769398906
100
AcDbArc
 50
18.8164501951
 51
73.5576821991
  0
ARC
  5
2F1
330
297
100
AcDbEntity
  8
0
  6
Continuous
 62
     7
370
    25
100
AcDbCircle
 10
-22.4994359738
 20
77.1480997271
 30
0.0
 40
107.4663962410146
100
AcDbArc
 50
213.448818901
 51
232.2159380317
  0
ARC
  5
2F2
330
297
100
AcDbEntity
  8
0
  6
Continuous
 62
     7
370
    25
100
AcDbCircle
 10
-86.0625583683
 20
-4.8152847167
 30
0.0
 40
3.744373548380893
100
AcDbArc
 50
232.4857987841
 51
260.2735902191
  0
ARC
  5
2F3
330
297
100
AcDbEntity
  8
0
  6
Continuous
 62
     7
370
    25
100
AcDbCircle
 10
-112.770320026
 20
18.9793246424
 30
0.0
 40
0.2741980596115096
100
AcDbArc
 50
150.2449086765
 51
206.0860751308
  0
ARC
  5
2F4
330
297
100
AcDbEntity
  8
0
  6
Continuous
 62
     8
370
    25
100
AcDbCircle
 10
111.8803988371
 20
-36.9391187649
 30
0.0
 40
0.1470087221535996
100
AcDbArc
 50
317.7647727073
 51
22.209893946
  0
ARC
  5
2F5
330
297
100
AcDbEntity
  8
0
  6
Continuous
 62
     8
370
    25
100
AcDbCircle
 10
108.9151425654
 20
-27.698987477
 30
0.0
 40
0.054089834688355
100
AcDbArc
 50
80.7318299957
 51
143.9675277131
  0
ARC
  5
2F6
330
297
100
AcDbEntity
  8
0
  6
Continuous
 62
     8
370
    25
100
AcDbCircle
 10
-105.7474698591
 20
30.6417109165
 30
0.0
 40
0.0540898346883509
100
AcDbArc
 50
80.7318299957
 51
143.9675277131
  0
ARC
  5
2F7
330
297
100
AcDbEntity
  8
0
  6
Continuous
 62
     8
370
    25
100
AcDbCircle
 10
-108.9334546357
 20
27.5151322898
 30
0.0
 40
0.1429657180048222
100
AcDbArc
 50
71.5546702156
 51
131.3553518555
  0
ARC
  5
2F8
330
297
100
AcDbEntity
  8
0
  6
Continuous
 62
     8
370
    25
100
AcDbCircle
 10
-105.8364457312
 20
30.5379079238
 30
0.0
 40
0.1429657180048182
100
AcDbArc
 50
71.5546702156
 51
131.3553518555
  0
VIEWPORT
  5
443
330
297
100
AcDbEntity
  8
0
100
AcDbViewport
 10
0.0
 20
0.0
 30
0.0
 40
205.6
 41
156.0
 68
     1
 69
     1
 12
0.0180555842
 22
-13.4691899598
 13
0.0
 23
0.0
 14
10.0
 24
10.0
 15
10.0
 25
10.0
 16
0.0
 26
0.0
 36
1.0
 17
0.0
 27
0.0
 37
0.0
 42
50.0
 43
0.0
 44
0.0
 45
193.3950521986
 50
0.0
 51
0.0
 72
   100
 90
   557152
  1

281
     0
 71
     1
 74
     0
110
0.0
120
0.0
130
0.0
111
1.0
121
0.0
131
0.0
112
0.0
122
1.0
132
0.0
 79
     0
146
0.0
  0
ENDBLK
  5
29A
330
297
100
AcDbEntity
  8
0
100
AcDbBlockEnd
  0
BLOCK
  5
2FB
330
2F9
100
AcDbEntity
  8
0
100
AcDbBlockBegin
  2
*Paper_Space6
 70
     0
 10
0.0
 20
0.0
 30
0.0
  3
*Paper_Space6
  1

  0
LWPOLYLINE
  5
30A
330
2F9
100
AcDbEntity
  8
0
  6
Continuous
 62
     7
370
    25
100
AcDbPolyline
 90
       12
 70
   128
 43
0.0
 10
111.3649551762
 20
-25.4186717142
 10
111.6353405371
 20
-25.4617484862
 10
111.7232579974
 20
-25.499579993
 10
111.6259825665
 20
-25.5309936517
 10
111.346529284
 20
-25.5550158001
 10
110.8935597689
 20
-25.5709018747
 10
110.2811137534
 20
-25.5781594887
 10
109.5281739236
 20
-25.5765636932
 10
108.6580775535
 20
-25.5661639498
 10
107.6977931691
 20
-25.5472825971
 10
106.6770846623
 20
-25.5205048603
 10
106.5350694046
 20
-25.5162883121
  0
SPLINE
  5
310
330
2F9
100
AcDbEntity
  8
0
  6
Continuous
 62
     7
370
    25
100
AcDbSpline
210
0.0
220
0.0
230
1.0
 70
     8
 71
     3
 72
    17
 73
    13
 74
     0
 42
0.000000001
 43
0.00000001
 40
0.0
 40
0.0
 40
0.0
 40
0.0
 40
0.3928429122325309
 40
0.6336819525335543
 40
0.7494003612001929
 40
0.8240228177579146
 40
0.8582704137517648
 40
0.8868504535102674
 40
0.9081170336279698
 40
0.9294192876905762
 40
0.9575681644906339
 40
0.9999999999999999
 40
0.9999999999999999
 40
0.9999999999999999
 40
0.9999999999999999
 10
-118.165263516176
 20
2.96727191817341
 30
0.0
 10
-118.2258376034913
 20
3.03820546136006
 30
0.0
 10
-118.32354766705
 20
3.15262602170871
 30
0.0
 10
-118.4200348690307
 20
3.30407145119551
 30
0.0
 10
-118.4643681273867
 20
3.397490988346605
 30
0.0
 10
-118.4796761877819
 20
3.449600029947358
 30
0.0
 10
-118.48172016427
 20
3.482504330029231
 30
0.0
 10
-118.4779511528586
 20
3.502271668566471
 30
0.0
 10
-118.4694347973608
 20
3.516581403070353
 30
0.0
 10
-118.4566104869869
 20
3.526433193322173
 30
0.0
 10
-118.4365468277756
 20
3.532330571616622
 30
0.0
 10
-118.4205893145892
 20
3.531110509480753
 30
0.0
 10
-118.4109959490294
 20
3.530377030401748
 30
0.0
  0
LWPOLYLINE
  5
323
330
2F9
100
AcDbEntity
  8
0
  6
Continuous
 62
     7
370
    25
100
AcDbPolyline
 90
        9
 70
   128
 43
0.0
 10
-91.2931451227
 20
-19.1204587704
 10
-91.3175863641
 20
-19.1266187001
 10
-91.3364681386
 20
-19.1207032155
 10
-91.3485115766
 20
-19.1031129744
 10
-91.3529009718
 20
-19.0750393702
 10
-91.3493390288
 20
-19.0383838385
 10
-91.3380669994
 20
-18.9956290715
 10
-91.3198483421
 20
-18.9496708652
 10
-91.2959170132
 20
-18.9036219855
  0
SPLINE
  5
327
330
2F9
100
AcDbEntity
  8
0
  6
Continuous
 62
     7
370
    25
100
AcDbSpline
210
0.0
220
0.0
230
1.0
 70
     8
 71
     3
 72
     8
 73
     4
 74
     0
 42
0.000000001
 43
0.00000001
 40
0.0
 40
0.0
 40
0.0
 40
0.0
 40
0.0000453377850437
 40
0.0000453377850437
 40
0.0000453377850437
 40
0.0000453377850437
 10
-118.730889635413
 20
3.45625207874356
 30
0.0
 10
-118.7417256844969
 20
3.46643007516316
 30
0.0
 10
-118.7519126782407
 20
3.477041087048483
 30
0.0
 10
-118.761145620848
 20
3.487739097801489
 30
0.0
  0
LWPOLYLINE
  5
328
330
2F9
100
AcDbEntity
  8
0
  6
Continuous
 62
     8
370
    25
100
AcDbPolyline
 90
        8
 70
   128
 43
0.0
 10
-89.5526420819
 20
-19.6146050629
 10
-89.5650905062
 20
-19.6102300023
 10
-89.5803157023
 20
-19.5925517989
 10
-89.5931989863
 20
-19.5625102952
 10
-89.6028448037
 20
-19.5221937632
 10
-89.6085826458
 20
-19.4744047218
 10
-89.6100136587
 20
-19.4224651254
 10
-89.6070383685
 20
-19.3699854458
  0
LWPOLYLINE
  5
32A
330
2F9
100
AcDbEntity
  8
0
  6
Continuous
 62
     8
370
    25
100
AcDbPolyline
 90
        4
 70
   128
 43
0.0
 10
118.0264787004
 20
-22.8662729598
 10
118.0269041761
 20
-22.8685493909
 10
118.0236877417
 20
-22.8779691134
 10
118.0132857027
 20
-22.8893656883
  0
LWPOLYLINE
  5
32B
330
2F9
100
AcDbEntity
  8
0
  6
Continuous
 62
     8
370
    25
100
AcDbPolyline
 90
        4
 70
   128
 43
0.0
 10
114.8766103008
 20
-13.3986584647
 10
114.8770357765
 20
-13.4009348958
 10
114.873819342
 20
-13.4103546183
 10
114.8634173031
 20
-13.4217511932
  0
LWPOLYLINE
  5
32C
330
2F9
100
AcDbEntity
  8
0
  6
Continuous
 62
     8
370
    25
100
AcDbPolyline
 90
        3
 70
   128
 43
0.0
 10
114.7118375735
 20
-13.2633643635
 10
114.7006325425
 20
-13.2646910467
 10
114.6868375735
 20
-13.2732339035
  0
LWPOLYLINE
  5
32D
330
2F9
100
AcDbEntity
  8
0
  6
Continuous
 62
     8
370
    25
100
AcDbPolyline
 90
        3
 70
   128
 43
0.0
 10
-112.3283851961
 20
15.3410150058
 10
-112.3395902272
 20
15.3396883226
 10
-112.3533851961
 20
15.3311454658
  0
LWPOLYLINE
  5
32E
330
2F9
100
AcDbEntity
  8
0
  6
Continuous
 62
     8
370
    25
100
AcDbPolyline
 90
        8
 70
   128
 43
0.0
 10
-114.7689168863
 20
13.0492649585
 10
-114.7999634927
 20
13.0658390563
 10
-114.8274633431
 20
13.082681529
 10
-114.8504448169
 20
13.099197301
 10
-114.8680959364
 20
13.1148028398
 10
-114.8797930552
 20
13.1289467729
 10
-114.8851228923
 20
13.1411293692
 10
-114.8844340855
 20
13.1497810211
  0
LINE
  5
331
330
2F9
100
AcDbEntity
  8
0
  6
Continuous
 62
     7
370
    25
100
AcDbLine
 10
-89.5526420819
 20
-19.6146050629
 30
0.0
 11
106.5350694046
 21
-25.5162883121
 31
0.0
  0
LINE
  5
332
330
2F9
100
AcDbEntity
  8
0
  6
Continuous
 62
     7
370
    25
100
AcDbLine
 10
114.8656293636
 20
-25.816320152
 30
0.0
 11
117.9689935387
 21
-23.079410207
 31
0.0
  0
LINE
  5
333
330
2F9
100
AcDbEntity
  8
0
  6
Continuous
 62
     7
370
    25
100
AcDbLine
 10
118.0264787004
 20
-22.8662729598
 30
0.0
 11
114.8766103008
 21
-13.3986584647
 31
0.0
  0
LINE
  5
334
330
2F9
100
AcDbEntity
  8
0
  6
Continuous
 62
     7
370
    25
100
AcDbLine
 10
114.7118375735
 20
-13.2633643635
 30
0.0
 11
-112.3283851961
 21
15.3410150058
 31
0.0
  0
LINE
  5
335
330
2F9
100
AcDbEntity
  8
0
  6
Continuous
 62
     7
370
    25
100
AcDbLine
 10
-118.1639297461
 20
2.9683059232
 30
0.0
 11
-117.9865530041
 21
2.7636479212
 31
0.0
  0
LINE
  5
336
330
2F9
100
AcDbEntity
  8
0
  6
Continuous
 62
     7
370
    25
100
AcDbLine
 10
-114.8844340855
 20
13.1497810211
 30
0.0
 11
-118.7745205975
 21
3.7308242602
 31
0.0
  0
LINE
  5
337
330
2F9
100
AcDbEntity
  8
0
  6
Continuous
 62
     7
370
    25
100
AcDbLine
 10
-112.4856727617
 20
15.2925836575
 30
0.0
 11
-114.8318669273
 21
13.2234348942
 31
0.0
  0
LINE
  5
338
330
2F9
100
AcDbEntity
  8
0
  6
Continuous
 62
     7
370
    25
100
AcDbLine
 10
-89.6070383685
 20
-19.3699854458
 30
0.0
 11
111.3649551762
 21
-25.4186717142
 31
0.0
  0
LINE
  5
339
330
2F9
100
AcDbEntity
  8
0
  6
Continuous
 62
     7
370
    25
100
AcDbLine
 10
-118.410995949
 20
3.5303770304
 30
0.0
 11
111.3649551762
 21
-25.4186717142
 31
0.0
  0
LINE
  5
33A
330
2F9
100
AcDbEntity
  8
0
  6
Continuous
 62
     7
370
    25
100
AcDbLine
 10
114.7981888439
 20
-25.8563876065
 30
0.0
 11
112.2713058834
 21
-15.5551144108
 31
0.0
  0
LINE
  5
33B
330
2F9
100
AcDbEntity
  8
0
  6
Continuous
 62
     7
370
    25
100
AcDbLine
 10
-117.841527563
 20
2.6290096757
 30
0.0
 11
-118.7308896354
 21
3.4562520787
 31
0.0
  0
LINE
  5
33C
330
2F9
100
AcDbEntity
  8
0
  6
Continuous
 62
     7
370
    25
100
AcDbLine
 10
-114.7689168863
 20
13.0492649585
 30
0.0
 11
-118.7308896354
 21
3.4562520787
 31
0.0
  0
LINE
  5
33D
330
2F9
100
AcDbEntity
  8
0
  6
Continuous
 62
     7
370
    25
100
AcDbLine
 10
112.2713058834
 20
-15.5551144108
 30
0.0
 11
-114.7689168863
 21
13.0492649585
 31
0.0
  0
LINE
  5
33E
330
2F9
100
AcDbEntity
  8
0
  6
Continuous
 62
     7
370
    25
100
AcDbLine
 10
114.7386830564
 20
-25.8643938427
 30
0.0
 11
105.55323502
 21
-25.4867378855
 31
0.0
  0
LINE
  5
33F
330
2F9
100
AcDbEntity
  8
0
  6
Continuous
 62
     7
370
    25
100
AcDbLine
 10
112.5172231375
 20
-15.4908999565
 30
0.0
 11
114.9867839089
 21
-25.5584893847
 31
0.0
  0
LINE
  5
340
330
2F9
100
AcDbEntity
  8
0
  6
Continuous
 62
     7
370
    25
100
AcDbLine
 10
114.8634173031
 20
-13.4217511932
 30
0.0
 11
112.5172231375
 21
-15.4908999565
 31
0.0
  0
LINE
  5
341
330
2F9
100
AcDbEntity
  8
0
  6
Continuous
 62
     7
370
    25
100
AcDbLine
 10
118.0132857027
 20
-22.8893656883
 30
0.0
 11
114.8634173031
 21
-13.4217511932
 31
0.0
  0
LINE
  5
342
330
2F9
100
AcDbEntity
  8
0
  6
Continuous
 62
     7
370
    25
100
AcDbLine
 10
114.9867839089
 20
-25.5584893847
 30
0.0
 11
118.0132857027
 21
-22.8893656883
 31
0.0
  0
LINE
  5
343
330
2F9
100
AcDbEntity
  8
0
  6
Continuous
 62
     7
370
    25
100
AcDbLine
 10
-114.6995793617
 20
13.2619967026
 30
0.0
 11
112.3406434079
 21
-15.3423826668
 31
0.0
  0
LINE
  5
344
330
2F9
100
AcDbEntity
  8
0
  6
Continuous
 62
     7
370
    25
100
AcDbLine
 10
112.3406434079
 20
-15.3423826668
 30
0.0
 11
114.6868375735
 21
-13.2732339035
 31
0.0
  0
LINE
  5
345
330
2F9
100
AcDbEntity
  8
0
  6
Continuous
 62
     7
370
    25
100
AcDbLine
 10
-112.3533851961
 20
15.3311454658
 30
0.0
 11
-114.6995793617
 21
13.2619967026
 31
0.0
  0
LINE
  5
346
330
2F9
100
AcDbEntity
  8
0
  6
Continuous
 62
     7
370
    25
100
AcDbLine
 10
114.6868375735
 20
-13.2732339035
 30
0.0
 11
-112.3533851961
 21
15.3311454658
 31
0.0
  0
ARC
  5
347
330
2F9
100
AcDbEntity
  8
0
  6
Continuous
 62
     7
370
    25
100
AcDbCircle
 10
114.6868375735
 20
-13.4617957119
 30
0.0
 40
0.199999999999991
100
AcDbArc
 50
18.4022461963
 51
82.8192442221
  0
ARC
  5
348
330
2F9
100
AcDbEntity
  8
0
  6
Continuous
 62
     7
370
    25
100
AcDbCircle
 10
117.8367059731
 20
-22.929410207
 30
0.0
 40
0.200000000000043
100
AcDbArc
 50
311.40962211
 51
18.4022461964
  0
ARC
  5
349
330
2F9
100
AcDbEntity
  8
0
  6
Continuous
 62
     7
370
    25
100
AcDbCircle
 10
-114.6995793617
 20
13.0734348942
 30
0.0
 40
0.2000000000000816
100
AcDbArc
 50
131.40962211
 51
157.5590766013
  0
ARC
  5
34A
330
2F9
100
AcDbEntity
  8
0
  6
Continuous
 62
     7
370
    25
100
AcDbCircle
 10
-112.3533851961
 20
15.1425836575
 30
0.0
 40
0.2000000000000133
100
AcDbArc
 50
82.8192442221
 51
131.40962211
  0
ARC
  5
34B
330
2F9
100
AcDbEntity
  8
0
  6
Continuous
 62
     7
370
    25
100
AcDbCircle
 10
-89.5033398905
 20
-15.7032377963
 30
0.0
 40
3.668213693284325
100
AcDbArc
 50
240.7462405957
 51
268.3800625377
  0
ARC
  5
34C
330
2F9
100
AcDbEntity
  8
0
  6
Continuous
 62
     7
370
    25
100
AcDbCircle
 10
-42.2477853738
 20
67.9823526659
 30
0.0
 40
99.77420412337801
100
AcDbArc
 50
220.2390683933
 51
240.5547725191
  0
ARC
  5
34D
330
2F9
100
AcDbEntity
  8
0
  6
Continuous
 62
     7
370
    25
100
AcDbCircle
 10
114.7458699239
 20
-25.6926703224
 30
0.0
 40
0.1718738447355001
100
AcDbArc
 50
267.6034907219
 51
287.722252684
  0
ARC
  5
34E
330
2F9
100
AcDbEntity
  8
0
  6
Continuous
 62
     7
370
    25
100
AcDbCircle
 10
111.5005881107
 20
-12.1005620603
 30
0.0
 40
3.539482706246788
100
AcDbArc
 50
282.5768378831
 51
286.6920136359
  0
ARC
  5
34F
330
2F9
100
AcDbEntity
  8
0
  6
Continuous
 62
     7
370
    25
100
AcDbCircle
 10
114.6415323498
 20
-25.5485631231
 30
0.0
 40
0.3453942236136909
100
AcDbArc
 50
296.9722253882
 51
358.3531536639
  0
ARC
  5
350
330
2F9
100
AcDbEntity
  8
0
  6
Continuous
 62
     7
370
    25
100
AcDbCircle
 10
112.6300370132
 20
-15.5543730306
 30
0.0
 40
0.3587318959036492
100
AcDbArc
 50
143.7759933818
 51
180.1184115161
  0
ARC
  5
351
330
2F9
100
AcDbEntity
  8
0
  6
Continuous
 62
     7
370
    25
100
AcDbCircle
 10
112.3086593975
 20
-15.559641015
 30
0.0
 40
0.2196000154093838
100
AcDbArc
 50
18.2418357385
 51
81.62527194
  0
ARC
  5
352
330
2F9
100
AcDbEntity
  8
0
  6
Continuous
 62
     7
370
    25
100
AcDbCircle
 10
-114.4101857564
 20
13.0500063387
 30
0.0
 40
0.3587318959039204
100
AcDbArc
 50
143.7759933818
 51
180.1184115161
  0
ARC
  5
353
330
2F9
100
AcDbEntity
  8
0
  6
Continuous
 62
     7
370
    25
100
AcDbCircle
 10
114.6548535631
 20
-13.4904922517
 30
0.0
 40
0.2196000154094069
100
AcDbArc
 50
18.2418357385
 51
81.62527194
  0
ARC
  5
354
330
2F9
100
AcDbEntity
  8
0
  6
Continuous
 62
     7
370
    25
100
AcDbCircle
 10
-42.2658024805
 20
67.8023384981
 30
0.0
 40
99.7960570941227
100
AcDbArc
 50
220.7731030738
 51
240.5755590088
  0
ARC
  5
355
330
2F9
100
AcDbEntity
  8
0
  6
Continuous
 62
     7
370
    25
100
AcDbCircle
 10
-89.4192048629
 20
-15.7483823786
 30
0.0
 40
3.857790985691964
100
AcDbArc
 50
240.9380671977
 51
268.3254679156
  0
ARC
  5
356
330
2F9
100
AcDbEntity
  8
0
  6
Continuous
 62
     7
370
    25
100
AcDbCircle
 10
-118.562402009
 20
3.6205848623
 30
0.0
 40
0.2390544297895599
100
AcDbArc
 50
152.5388094006
 51
213.7598702703
  0
ARC
  5
357
330
2F9
100
AcDbEntity
  8
0
  6
Continuous
 62
     8
370
    25
100
AcDbCircle
 10
117.8475273746
 20
-22.950917384
 30
0.0
 40
0.1768175177356623
100
AcDbArc
 50
313.3897682449
 51
20.3716712093
  0
ARC
  5
358
330
2F9
100
AcDbEntity
  8
0
  6
Continuous
 62
     8
370
    25
100
AcDbCircle
 10
-114.7234479647
 20
13.0976893886
 30
0.0
 40
0.1660319355695908
100
AcDbArc
 50
81.7345715003
 51
130.7682222633
  0
ARC
  5
359
330
2F9
100
AcDbEntity
  8
0
  6
Continuous
 62
     8
370
    25
100
AcDbCircle
 10
-112.3772537991
 20
15.1668381519
 30
0.0
 40
0.1660319355699196
100
AcDbArc
 50
81.7345715004
 51
130.7682222632
  0
VIEWPORT
  5
445
330
2F9
100
AcDbEntity
  8
0
100
AcDbViewport
 10
0.0
 20
0.0
 30
0.0
 40
205.6
 41
156.0
 68
     1
 69
     1
 12
0.0180555842
 22
-13.4691899598
 13
0.0
 23
0.0
 14
10.0
 24
10.0
 15
10.0
 25
10.0
 16
0.0
 26
0.0
 36
1.0
 17
0.0
 27
0.0
 37
0.0
 42
50.0
 43
0.0
 44
0.0
 45
193.3950521986
 50
0.0
 51
0.0
 72
   100
 90
   557152
  1

281
     0
 71
     1
 74
     0
110
0.0
120
0.0
130
0.0
111
1.0
121
0.0
131
0.0
112
0.0
122
1.0
132
0.0
 79
     0
146
0.0
  0
ENDBLK
  5
2FC
330
2F9
100
AcDbEntity
  8
0
100
AcDbBlockEnd
  0
BLOCK
  5
35C
330
35A
100
AcDbEntity
  8
0
100
AcDbBlockBegin
  2
*Paper_Space7
 70
     0
 10
0.0
 20
0.0
 30
0.0
  3
*Paper_Space7
  1

  0
LWPOLYLINE
  5
36B
330
35A
100
AcDbEntity
  8
0
  6
Continuous
 62
     7
370
    25
100
AcDbPolyline
 90
       12
 70
   128
 43
0.0
 10
86.4286958602
 20
-26.848261472
 10
86.6426940342
 20
-26.8957731421
 10
86.7109854484
 20
-26.9352021974
 10
86.631453419
 20
-26.9653265395
 10
86.4065630312
 20
-26.9852124682
 10
86.0432847338
 20
-26.9942436216
 10
85.5528782913
 20
-26.9921400803
 10
84.9505437888
 20
-26.9789670433
 10
84.2549505074
 20
-26.9551328072
 10
83.4876582721
 20
-26.9213761112
 10
82.6724492078
 20
-26.8787432396
 10
82.0603806419
 20
-26.8426926597
  0
SPLINE
  5
371
330
35A
100
AcDbEntity
  8
0
  6
Continuous
 62
     7
370
    25
100
AcDbSpline
210
0.0
220
0.0
230
1.0
 70
     8
 71
     3
 72
    17
 73
    13
 74
     0
 42
0.000000001
 43
0.00000001
 40
0.0
 40
0.0
 40
0.0
 40
0.0
 40
0.1149159152791565
 40
0.4659993594890928
 40
0.6346880298242562
 40
0.7434690191146374
 40
0.7933934995576872
 40
0.8350560920573524
 40
0.8660574786471569
 40
0.8971108689795017
 40
0.9381449330799614
 40
1.0
 40
1.0
 40
1.0
 40
1.0
 10
-95.7807264645301
 20
5.426643182285237
 30
0.0
 10
-95.78947983969177
 20
5.441355004516899
 30
0.0
 10
-95.8249759431584
 20
5.5010134053591
 30
0.0
 10
-95.86323014565218
 20
5.592242480857386
 30
0.0
 10
-95.89394046610205
 20
5.686652990220951
 30
0.0
 10
-95.90332965883421
 20
5.739371072039211
 30
0.0
 10
-95.90318475190081
 20
5.772518313858336
 30
0.0
 10
-95.89909722987215
 20
5.792357269587576
 30
0.0
 10
-95.89150780729257
 20
5.806629488803599
 30
0.0
 10
-95.88071314945167
 20
5.816348599029523
 30
0.0
 10
-95.86434072603295
 20
5.821976240719898
 30
0.0
 10
-95.85163938098371
 20
5.82050307367478
 30
0.0
 10
-95.8440035642536
 20
5.819617432545765
 30
0.0
  0
LWPOLYLINE
  5
384
330
35A
100
AcDbEntity
  8
0
  6
Continuous
 62
     7
370
    25
100
AcDbPolyline
 90
        9
 70
   128
 43
0.0
 10
-77.7686779173
 20
-16.5696094821
 10
-77.8080391254
 20
-16.5687143894
 10
-77.841933017
 20
-16.555876322
 10
-77.8680639464
 20
-16.5319648068
 10
-77.8846620564
 20
-16.4985993793
 10
-77.8906031508
 20
-16.4580398921
 10
-77.8854848373
 20
-16.413033454
 10
-77.8696537811
 20
-16.3666283674
 10
-77.8441822253
 20
-16.3219676654
  0
SPLINE
  5
388
330
35A
100
AcDbEntity
  8
0
  6
Continuous
 62
     7
370
    25
100
AcDbSpline
210
0.0
220
0.0
230
1.0
 70
     8
 71
     3
 72
     8
 73
     4
 74
     0
 42
0.000000001
 43
0.00000001
 40
0.0
 40
0.0
 40
0.0
 40
0.0
 40
0.0000453377850437
 40
0.0000453377850437
 40
0.0000453377850437
 40
0.0000453377850437
 10
-96.10396577142414
 20
5.749922913678366
 30
0.0
 10
-96.1120839154522
 20
5.760333811724721
 30
0.0
 10
-96.11906195334059
 20
5.770964443517358
 30
0.0
 10
-96.12470850559772
 20
5.781473543661094
 30
0.0
  0
LWPOLYLINE
  5
389
330
35A
100
AcDbEntity
  8
0
  6
Continuous
 62
     8
370
    25
100
AcDbPolyline
 90
        9
 70
   128
 43
0.0
 10
-76.4466896094
 20
-17.0759512233
 10
-76.4518688155
 20
-17.0754653802
 10
-76.4843577607
 20
-17.0643690063
 10
-76.5133732691
 20
-17.0402014836
 10
-76.5368983886
 20
-17.0046427667
 10
-76.5532978201
 20
-16.960164645
 10
-76.5614315917
 20
-16.9098589214
 10
-76.5607343014
 20
-16.8572224923
 10
-76.5512544199
 20
-16.8059142683
  0
LWPOLYLINE
  5
38D
330
35A
100
AcDbEntity
  8
0
  6
Continuous
 62
     8
370
    25
100
AcDbPolyline
 90
        3
 70
   128
 43
0.0
 10
92.3020612936
 20
-15.5413472395
 10
92.2884205915
 20
-15.5400038577
 10
92.2621913264
 20
-15.5433076315
  0
LWPOLYLINE
  5
38E
330
35A
100
AcDbEntity
  8
0
  6
Continuous
 62
     8
370
    25
100
AcDbPolyline
 90
        3
 70
   128
 43
0.0
 10
-87.8004867732
 20
16.7375856409
 10
-87.8141274753
 20
16.7389290227
 10
-87.8403567404
 20
16.7356252489
  0
LWPOLYLINE
  5
38F
330
35A
100
AcDbEntity
  8
0
  6
Continuous
 62
     8
370
    25
100
AcDbPolyline
 90
        6
 70
   128
 43
0.0
 10
-92.4140420986
 20
15.3446885729
 10
-92.4366499657
 20
15.3613874819
 10
-92.4537849177
 20
15.3773976569
 10
-92.4648415451
 20
15.3921534291
 10
-92.469429197
 20
15.4051334496
 10
-92.4684211369
 20
15.4136837192
  0
LINE
  5
392
330
35A
100
AcDbEntity
  8
0
  6
Continuous
 62
     7
370
    25
100
AcDbLine
 10
-76.4466896094
 20
-17.0759512233
 30
0.0
 11
82.0603806419
 21
-26.8426926597
 31
0.0
  0
LINE
  5
393
330
35A
100
AcDbEntity
  8
0
  6
Continuous
 62
     7
370
    25
100
AcDbLine
 10
89.1410130405
 20
-27.3450730916
 30
0.0
 11
95.0381831821
 21
-25.7549412773
 31
0.0
  0
LINE
  5
394
330
35A
100
AcDbEntity
  8
0
  6
Continuous
 62
     7
370
    25
100
AcDbLine
 10
95.1788655522
 20
-25.5084815131
 30
0.0
 11
92.4595297474
 21
-15.6848538197
 31
0.0
  0
LINE
  5
395
330
35A
100
AcDbEntity
  8
0
  6
Continuous
 62
     7
370
    25
100
AcDbLine
 10
92.3020612936
 20
-15.5413472395
 30
0.0
 11
-87.8004867732
 21
16.7375856409
 31
0.0
  0
LINE
  5
396
330
35A
100
AcDbEntity
  8
0
  6
Continuous
 62
     7
370
    25
100
AcDbLine
 10
-95.7796513045
 20
5.4273336458
 30
0.0
 11
-95.5920357954
 21
5.0759467587
 31
0.0
  0
LINE
  5
397
330
35A
100
AcDbEntity
  8
0
  6
Continuous
 62
     7
370
    25
100
AcDbLine
 10
-92.4684211369
 20
15.4136837192
 30
0.0
 11
-96.1211785822
 21
5.9155599624
 31
0.0
  0
LINE
  5
398
330
35A
100
AcDbEntity
  8
0
  6
Continuous
 62
     7
370
    25
100
AcDbLine
 10
-87.8878385883
 20
16.7338255859
 30
0.0
 11
-92.3338185481
 21
15.5349973327
 31
0.0
  0
LINE
  5
399
330
35A
100
AcDbEntity
  8
0
  6
Continuous
 62
     7
370
    25
100
AcDbLine
 10
-76.5512544199
 20
-16.8059142683
 30
0.0
 11
86.4286958602
 21
-26.848261472
 31
0.0
  0
LINE
  5
39A
330
35A
100
AcDbEntity
  8
0
  6
Continuous
 62
     7
370
    25
100
AcDbLine
 10
-95.8440035643
 20
5.8196174325
 30
0.0
 11
86.4286958602
 21
-26.848261472
 31
0.0
  0
LINE
  5
39B
330
35A
100
AcDbEntity
  8
0
  6
Continuous
 62
     7
370
    25
100
AcDbLine
 10
89.1518720018
 20
-27.3415765934
 30
0.0
 11
87.6885059682
 21
-16.9342443074
 31
0.0
  0
LINE
  5
39C
330
35A
100
AcDbEntity
  8
0
  6
Continuous
 62
     7
370
    25
100
AcDbLine
 10
-95.4372344691
 20
4.9036181926
 30
0.0
 11
-96.1039657714
 21
5.7499229137
 31
0.0
  0
LINE
  5
39D
330
35A
100
AcDbEntity
  8
0
  6
Continuous
 62
     7
370
    25
100
AcDbLine
 10
-92.4140420986
 20
15.3446885729
 30
0.0
 11
-96.1039657714
 21
5.7499229137
 31
0.0
  0
LINE
  5
39E
330
35A
100
AcDbEntity
  8
0
  6
Continuous
 62
     7
370
    25
100
AcDbLine
 10
87.6885059682
 20
-16.9342443074
 30
0.0
 11
-92.4140420986
 21
15.3446885729
 31
0.0
  0
LINE
  5
39F
330
35A
100
AcDbEntity
  8
0
  6
Continuous
 62
     7
370
    25
100
AcDbLine
 10
89.1038279361
 20
-27.3487209487
 30
0.0
 11
81.5250285567
 21
-26.8097058322
 31
0.0
  0
LINE
  5
3A0
330
35A
100
AcDbEntity
  8
0
  6
Continuous
 62
     7
370
    25
100
AcDbLine
 10
87.9593572365
 20
-16.8977572929
 30
0.0
 11
89.3895268989
 21
-27.0689998672
 31
0.0
  0
LINE
  5
3A1
330
35A
100
AcDbEntity
  8
0
  6
Continuous
 62
     7
370
    25
100
AcDbLine
 10
92.4053371962
 20
-15.6989290397
 30
0.0
 11
87.9593572365
 21
-16.8977572929
 31
0.0
  0
LINE
  5
3A2
330
35A
100
AcDbEntity
  8
0
  6
Continuous
 62
     7
370
    25
100
AcDbLine
 10
95.124673001
 20
-25.5225567331
 30
0.0
 11
92.4053371962
 21
-15.6989290397
 31
0.0
  0
LINE
  5
3A3
330
35A
100
AcDbEntity
  8
0
  6
Continuous
 62
     7
370
    25
100
AcDbLine
 10
89.3895268989
 20
-27.0689998672
 30
0.0
 11
95.124673001
 21
-25.5225567331
 31
0.0
  0
LINE
  5
3A4
330
35A
100
AcDbEntity
  8
0
  6
Continuous
 62
     7
370
    25
100
AcDbLine
 10
-92.2863367002
 20
15.5367969957
 30
0.0
 11
87.8162113666
 21
-16.7421358847
 31
0.0
  0
LINE
  5
3A5
330
35A
100
AcDbEntity
  8
0
  6
Continuous
 62
     7
370
    25
100
AcDbLine
 10
87.8162113666
 20
-16.7421358847
 30
0.0
 11
92.2621913264
 21
-15.5433076315
 31
0.0
  0
LINE
  5
3A6
330
35A
100
AcDbEntity
  8
0
  6
Continuous
 62
     7
370
    25
100
AcDbLine
 10
-87.8403567404
 20
16.7356252489
 30
0.0
 11
-92.2863367002
 21
15.5367969957
 31
0.0
  0
LINE
  5
3A7
330
35A
100
AcDbEntity
  8
0
  6
Continuous
 62
     7
370
    25
100
AcDbLine
 10
92.2621913264
 20
-15.5433076315
 30
0.0
 11
-87.8403567404
 21
16.7356252489
 31
0.0
  0
ARC
  5
3A8
330
35A
100
AcDbEntity
  8
0
  6
Continuous
 62
     7
370
    25
100
AcDbCircle
 10
94.9861142327
 20
-25.5618381326
 30
0.0
 40
0.1999999999999832
100
AcDbArc
 50
285.0905191974
 51
15.4729316908
  0
ARC
  5
3A9
330
35A
100
AcDbEntity
  8
0
  6
Continuous
 62
     7
370
    25
100
AcDbCircle
 10
92.2667784279
 20
-15.7382104392
 30
0.0
 40
0.199999999999917
100
AcDbArc
 50
15.4729316907
 51
79.8390262129
  0
ARC
  5
3AA
330
35A
100
AcDbEntity
  8
0
  6
Continuous
 62
     7
370
    25
100
AcDbCircle
 10
-92.2817495986
 20
15.341894188
 30
0.0
 40
0.1999999999999127
100
AcDbArc
 50
105.0905191974
 51
158.9644179738
  0
ARC
  5
3AB
330
35A
100
AcDbEntity
  8
0
  6
Continuous
 62
     7
370
    25
100
AcDbCircle
 10
-87.8357696389
 20
16.5407224412
 30
0.0
 40
0.1999999999998537
100
AcDbArc
 50
79.8390262129
 51
105.0905191974
  0
ARC
  5
3AC
330
35A
100
AcDbEntity
  8
0
  6
Continuous
 62
     7
370
    25
100
AcDbCircle
 10
-76.4298842515
 20
-14.5125699797
 30
0.0
 40
2.296553666716396
100
AcDbArc
 50
231.9873869021
 51
266.9705739213
  0
ARC
  5
3AD
330
35A
100
AcDbEntity
  8
0
  6
Continuous
 62
     7
370
    25
100
AcDbCircle
 10
-35.5344507988
 20
36.4605806863
 30
0.0
 40
67.64695694480618
100
AcDbArc
 50
206.9333714122
 51
231.2848388529
  0
ARC
  5
3AE
330
35A
100
AcDbEntity
  8
0
  6
Continuous
 62
     7
370
    25
100
AcDbCircle
 10
89.111562499
 20
-27.2356194663
 30
0.0
 40
0.113365642051881
100
AcDbArc
 50
266.0878593134
 51
290.8284264291
  0
ARC
  5
3AF
330
35A
100
AcDbEntity
  8
0
  6
Continuous
 62
     7
370
    25
100
AcDbCircle
 10
87.9836919607
 20
-18.101937664
 30
0.0
 40
1.204426230677994
100
AcDbArc
 50
91.1577063297
 51
104.186817258
  0
ARC
  5
3B0
330
35A
100
AcDbEntity
  8
0
  6
Continuous
 62
     7
370
    25
100
AcDbCircle
 10
88.8735426482
 20
-26.859014136
 30
0.0
 40
0.5570760758846753
100
AcDbArc
 50
299.9752193261
 51
337.8555686622
  0
ARC
  5
3B1
330
35A
100
AcDbEntity
  8
0
  6
Continuous
 62
     7
370
    25
100
AcDbCircle
 10
87.9047464813
 20
-16.9394909459
 30
0.0
 40
0.2163041531993107
100
AcDbArc
 50
114.1613992272
 51
178.6101065664
  0
ARC
  5
3B2
330
35A
100
AcDbEntity
  8
0
  6
Continuous
 62
     7
370
    25
100
AcDbCircle
 10
87.7585233292
 20
-16.9388452322
 30
0.0
 40
0.2049938463610903
100
AcDbArc
 50
11.5623971435
 51
73.6554146024
  0
ARC
  5
3B3
330
35A
100
AcDbEntity
  8
0
  6
Continuous
 62
     7
370
    25
100
AcDbCircle
 10
-92.1978015856
 20
15.3394419345
 30
0.0
 40
0.2163041531993246
100
AcDbArc
 50
114.1613992272
 51
178.6101065664
  0
ARC
  5
3B4
330
35A
100
AcDbEntity
  8
0
  6
Continuous
 62
     7
370
    25
100
AcDbCircle
 10
92.204503289
 20
-15.740016979
 30
0.0
 40
0.2049938463611592
100
AcDbArc
 50
11.5623971435
 51
73.6554146024
  0
ARC
  5
3B5
330
35A
100
AcDbEntity
  8
0
  6
Continuous
 62
     7
370
    25
100
AcDbCircle
 10
-35.5914303764
 20
36.1402019735
 30
0.0
 40
67.50736577446281
100
AcDbArc
 50
207.562357463
 51
231.3339629747
  0
ARC
  5
3B6
330
35A
100
AcDbEntity
  8
0
  6
Continuous
 62
     7
370
    25
100
AcDbCircle
 10
-76.2861996361
 20
-14.6543141978
 30
0.0
 40
2.422002865399475
100
AcDbArc
 50
232.2593856431
 51
266.876636642
  0
ARC
  5
3B7
330
35A
100
AcDbEntity
  8
0
  6
Continuous
 62
     7
370
    25
100
AcDbCircle
 10
-95.9704869133
 20
5.8445032203
 30
0.0
 40
0.1666044406939848
100
AcDbArc
 50
154.7543742358
 51
202.229615508
  0
ARC
  5
3B8
330
35A
100
AcDbEntity
  8
0
  6
Continuous
 62
     8
370
    25
100
AcDbCircle
 10
94.9542756717
 20
-25.5914249037
 30
0.0
 40
0.1837881246526678
100
AcDbArc
 50
297.1643727613
 51
22.0067003658
  0
ARC
  5
3B9
330
35A
100
AcDbEntity
  8
0
  6
Continuous
 62
     8
370
    25
100
AcDbCircle
 10
95.4592869782
 20
-26.6995268236
 30
0.0
 40
1.223611501955023
100
AcDbArc
 50
103.2485179337
 51
105.8705131872
  0
ARC
  5
3BA
330
35A
100
AcDbEntity
  8
0
  6
Continuous
 62
     8
370
    25
100
AcDbCircle
 10
92.7399511734
 20
-16.8758991302
 30
0.0
 40
1.223611501938755
100
AcDbArc
 50
103.2485179337
 51
105.8705131872
  0
ARC
  5
3BB
330
35A
100
AcDbEntity
  8
0
  6
Continuous
 62
     8
370
    25
100
AcDbCircle
 10
-92.3061124904
 20
15.4312820887
 30
0.0
 40
0.1073521191226772
100
AcDbArc
 50
79.3846750222
 51
104.9565106102
  0
ARC
  5
3BC
330
35A
100
AcDbEntity
  8
0
  6
Continuous
 62
     8
370
    25
100
AcDbCircle
 10
-87.8601325307
 20
16.6301103419
 30
0.0
 40
0.1073521191232217
100
AcDbArc
 50
79.3846750223
 51
104.9565106101
  0
VIEWPORT
  5
447
330
35A
100
AcDbEntity
  8
0
100
AcDbViewport
 10
0.0
 20
0.0
 30
0.0
 40
205.6
 41
156.0
 68
     1
 69
     1
 12
0.0180555842
 22
-13.4691899598
 13
0.0
 23
0.0
 14
10.0
 24
10.0
 15
10.0
 25
10.0
 16
0.0
 26
0.0
 36
1.0
 17
0.0
 27
0.0
 37
0.0
 42
50.0
 43
0.0
 44
0.0
 45
193.3950521986
 50
0.0
 51
0.0
 72
   100
 90
   557152
  1

281
     0
 71
     1
 74
     0
110
0.0
120
0.0
130
0.0
111
1.0
121
0.0
131
0.0
112
0.0
122
1.0
132
0.0
 79
     0
146
0.0
  0
ENDBLK
  5
35D
330
35A
100
AcDbEntity
  8
0
100
AcDbBlockEnd
  0
BLOCK
  5
3BF
330
3BD
100
AcDbEntity
  8
0
100
AcDbBlockBegin
  2
*Paper_Space8
 70
     0
 10
0.0
 20
0.0
 30
0.0
  3
*Paper_Space8
  1

  0
LWPOLYLINE
  5
3D3
330
3BD
100
AcDbEntity
  8
0
  6
Continuous
 62
     7
370
    25
100
AcDbPolyline
 90
        9
 70
   128
 43
0.0
 10
82.7734233832
 20
-31.7335997246
 10
82.7745192529
 20
-31.7327850693
 10
82.775615111
 20
-31.7319703868
 10
82.7767109575
 20
-31.7311556772
 10
82.7778067925
 20
-31.7303409405
 10
82.778902616
 20
-31.7295261766
 10
82.7799984279
 20
-31.7287113855
 10
82.7810942282
 20
-31.7278965673
 10
82.782190017
 20
-31.727081722
  0
LWPOLYLINE
  5
3D8
330
3BD
100
AcDbEntity
  8
0
  6
Continuous
 62
     7
370
    25
100
AcDbPolyline
 90
       20
 70
   128
 43
0.0
 10
64.3624557328
 20
-22.254042376
 10
64.308628637
 20
-21.6833808709
 10
64.1306356871
 20
-21.1417742362
 10
63.8477651811
 20
-20.6879139547
 10
63.4906705276
 20
-20.3709828303
 10
63.0980484731
 20
-20.2253252679
 10
62.7124457094
 20
-20.2667255247
 10
62.3756482792
 20
-20.4906972402
 10
62.12415341
 20
-20.872969604
 10
61.9852144732
 20
-21.3721174738
 10
61.9738876585
 20
-21.9340504329
 10
62.091400402
 20
-22.4978743258
 10
62.3250183745
 20
-23.0024900851
 10
62.6494254439
 20
-23.3932147634
 10
63.0294670703
 20
-23.6277072791
 10
63.4239598467
 20
-23.6805567295
 10
63.7901543595
 20
-23.5460360567
 10
64.0883677512
 20
-23.2387226629
 10
64.2862839735
 20
-22.7919187227
 10
64.3624557328
 20
-22.254042376
  0
LWPOLYLINE
  5
3D9
330
3BD
100
AcDbEntity
  8
0
  6
Continuous
 62
     7
370
    25
100
AcDbPolyline
 90
       20
 70
   128
 43
0.0
 10
-67.2544273648
 20
10.939175782
 10
-67.3082544607
 20
11.5098372871
 10
-67.4862474105
 20
12.0514439218
 10
-67.7691179165
 20
12.5053042033
 10
-68.12621257
 20
12.8222353277
 10
-68.5188346245
 20
12.9678928901
 10
-68.9044373882
 20
12.9264926333
 10
-69.2412348184
 20
12.7025209178
 10
-69.4927296876
 20
12.320248554
 10
-69.6316686244
 20
11.8211006842
 10
-69.6429954391
 20
11.2591677251
 10
-69.5254826956
 20
10.6953438322
 10
-69.2918647231
 20
10.1907280729
 10
-68.9674576538
 20
9.8000033946
 10
-68.5874160273
 20
9.5655108789
 10
-68.1929232509
 20
9.5126614285
 10
-67.8267287381
 20
9.6471821013
 10
-67.5285153464
 20
9.9544954951
 10
-67.3305991241
 20
10.4012994353
 10
-67.2544273648
 20
10.939175782
  0
LWPOLYLINE
  5
3DC
330
3BD
100
AcDbEntity
  8
0
  6
Continuous
 62
     7
370
    25
100
AcDbPolyline
 90
        9
 70
   128
 43
0.0
 10
83.0039513904
 20
-31.8788467225
 10
83.002853802
 20
-31.8796629061
 10
83.0017562019
 20
-31.8804790625
 10
83.0006585904
 20
-31.8812951917
 10
82.9995609672
 20
-31.8821112937
 10
82.9984633325
 20
-31.8829273685
 10
82.9973656862
 20
-31.8837434161
 10
82.9962680283
 20
-31.8845594365
 10
82.9951703589
 20
-31.8853754298
  0
LWPOLYLINE
  5
3E0
330
3BD
100
AcDbEntity
  8
0
  6
Continuous
 62
     7
370
    25
100
AcDbPolyline
 90
        8
 70
   128
 43
0.0
 10
89.4178546401
 20
-30.6760723482
 10
89.4256788998
 20
-30.6597134742
 10
89.4249472959
 20
-30.6389178589
 10
89.4156845947
 20
-30.6143894732
 10
89.398204356
 20
-30.5869586493
 10
89.3730983191
 20
-30.5575539725
 10
89.3412163707
 20
-30.5271708467
 10
89.3036377752
 20
-30.4968377983
  0
SPLINE
  5
3E9
330
3BD
100
AcDbEntity
  8
0
  6
Continuous
 62
     7
370
    25
100
AcDbSpline
210
0.0
220
0.0
230
1.0
 70
     8
 71
     3
 72
     8
 73
     4
 74
     0
 42
0.000000001
 43
0.00000001
 40
0.0
 40
0.0
 40
0.0
 40
0.0
 40
0.0000453377850437
 40
0.0000453377850437
 40
0.0000453377850437
 40
0.0000453377850437
 10
89.39980598090351
 20
-30.69348059307931
 30
0.0
 10
89.40710323724487
 20
-30.68735707642903
 30
0.0
 10
89.41317296281808
 20
-30.68149476057294
 30
0.0
 10
89.41785464013505
 20
-30.67607234816366
 30
0.0
  0
LWPOLYLINE
  5
3F8
330
3BD
100
AcDbEntity
  8
0
  6
Continuous
 62
     8
370
    25
100
AcDbPolyline
 90
        3
 70
   128
 43
0.0
 10
85.6644923068
 20
-20.5264030293
 10
85.6443256336
 20
-20.523447439
 10
85.619516885
 20
-20.5252427691
  0
LWPOLYLINE
  5
3F9
330
3BD
100
AcDbEntity
  8
0
  6
Continuous
 62
     8
370
    25
100
AcDbPolyline
 90
        3
 70
   128
 43
0.0
 10
-80.7185843668
 20
21.4347012899
 10
-80.7387510399
 20
21.4376568802
 10
-80.7635597885
 20
21.4358615501
  0
LWPOLYLINE
  5
3FC
330
3BD
100
AcDbEntity
  8
0
  6
Continuous
 62
     8
370
    25
100
AcDbPolyline
 90
        6
 70
   128
 43
0.0
 10
-85.7427803618
 20
20.3077769155
 10
-85.7649754612
 20
20.3272412752
 10
-85.7807238051
 20
20.3470066159
 10
-85.7894201933
 20
20.3663133669
 10
-85.7907304285
 20
20.3844195804
 10
-85.7896254171
 20
20.3896634511
  0
LWPOLYLINE
  5
3FD
330
3BD
100
AcDbEntity
  8
0
  6
Continuous
 62
     8
370
    25
100
AcDbPolyline
 90
        3
 70
   128
 43
0.0
 10
-85.6340824766
 20
20.531646828
 10
-85.614400252
 20
20.5331575292
 10
-85.5932874417
 20
20.5301614748
  0
LWPOLYLINE
  5
3FE
330
3BD
100
AcDbEntity
  8
0
  6
Continuous
 62
     8
370
    25
100
AcDbPolyline
 90
        6
 70
   128
 43
0.0
 10
-88.2402815666
 20
11.5052107423
 10
-88.262476666
 20
11.524675102
 10
-88.2782250098
 20
11.5444404428
 10
-88.286921398
 20
11.5637471937
 10
-88.2882316333
 20
11.5818534072
 10
-88.2871266219
 20
11.5870972779
  0
LWPOLYLINE
  5
3FF
330
3BD
100
AcDbEntity
  8
0
  6
Continuous
 62
     8
370
    25
100
AcDbPolyline
 90
        3
 70
   128
 43
0.0
 10
-80.8043548235
 20
21.4373469033
 10
-80.7846725989
 20
21.4388576045
 10
-80.7635597885
 20
21.4358615501
  0
LINE
  5
402
330
3BD
100
AcDbEntity
  8
0
  6
Continuous
 62
     7
370
    25
100
AcDbLine
 10
89.4218299981
 20
-30.6283151818
 30
0.0
 11
85.8036004594
 21
-20.652139976
 31
0.0
  0
LINE
  5
403
330
3BD
100
AcDbEntity
  8
0
  6
Continuous
 62
     7
370
    25
100
AcDbLine
 10
85.6644923068
 20
-20.5264030293
 30
0.0
 11
-80.7185843668
 21
21.4347012899
 31
0.0
  0
LINE
  5
404
330
3BD
100
AcDbEntity
  8
0
  6
Continuous
 62
     7
370
    25
100
AcDbLine
 10
88.9237635168
 20
-31.0759505789
 30
0.0
 11
89.0102138454
 21
-30.9770562298
 31
0.0
  0
LINE
  5
405
330
3BD
100
AcDbEntity
  8
0
  6
Continuous
 62
     7
370
    25
100
AcDbLine
 10
-87.1844386325
 20
10.9873547264
 30
0.0
 11
67.8413062001
 21
-40.5216563365
 31
0.0
  0
LINE
  5
406
330
3BD
100
AcDbEntity
  8
0
  6
Continuous
 62
     7
370
    25
100
AcDbLine
 10
-85.7896254171
 20
20.3896634511
 30
0.0
 11
-88.2871266219
 21
11.5870972779
 31
0.0
  0
LINE
  5
407
330
3BD
100
AcDbEntity
  8
0
  6
Continuous
 62
     7
370
    25
100
AcDbLine
 10
-80.8043548235
 20
21.4373469033
 30
0.0
 11
-85.6340824766
 21
20.531646828
 31
0.0
  0
LINE
  5
408
330
3BD
100
AcDbEntity
  8
0
  6
Continuous
 62
     7
370
    25
100
AcDbLine
 10
-88.1633101532
 20
11.344636101
 30
0.0
 11
-87.1899654187
 21
10.9892813083
 31
0.0
  0
LINE
  5
409
330
3BD
100
AcDbEntity
  8
0
  6
Continuous
 62
     7
370
    25
100
AcDbLine
 10
82.782190017
 20
-31.727081722
 30
0.0
 11
80.6402963117
 21
-21.6533274037
 31
0.0
  0
LINE
  5
40A
330
3BD
100
AcDbEntity
  8
0
  6
Continuous
 62
     7
370
    25
100
AcDbLine
 10
80.916559772
 20
-21.5942186443
 30
0.0
 11
83.0584534773
 21
-31.6679729626
 31
0.0
  0
LINE
  5
40B
330
3BD
100
AcDbEntity
  8
0
  6
Continuous
 62
     7
370
    25
100
AcDbLine
 10
89.3036377752
 20
-30.4968377983
 30
0.0
 11
85.7462874251
 21
-20.688518569
 31
0.0
  0
LINE
  5
40C
330
3BD
100
AcDbEntity
  8
0
  6
Continuous
 62
     7
370
    25
100
AcDbLine
 10
83.0584534773
 20
-31.6679729626
 30
0.0
 11
89.3036377752
 21
-30.4968377983
 31
0.0
  0
LINE
  5
40D
330
3BD
100
AcDbEntity
  8
0
  6
Continuous
 62
     7
370
    25
100
AcDbLine
 10
85.7462874251
 20
-20.688518569
 30
0.0
 11
80.916559772
 21
-21.5942186443
 31
0.0
  0
LINE
  5
40E
330
3BD
100
AcDbEntity
  8
0
  6
Continuous
 62
     7
370
    25
100
AcDbLine
 10
-87.266936832
 20
11.1498559496
 30
0.0
 11
82.7734233832
 21
-31.7335997246
 31
0.0
  0
LINE
  5
40F
330
3BD
100
AcDbEntity
  8
0
  6
Continuous
 62
     7
370
    25
100
AcDbLine
 10
-88.2402815666
 20
11.5052107423
 30
0.0
 11
-87.266936832
 21
11.1498559496
 31
0.0
  0
LINE
  5
410
330
3BD
100
AcDbEntity
  8
0
  6
Continuous
 62
     7
370
    25
100
AcDbLine
 10
-85.7427803618
 20
20.3077769155
 30
0.0
 11
-88.2402815666
 21
11.5052107423
 31
0.0
  0
LINE
  5
411
330
3BD
100
AcDbEntity
  8
0
  6
Continuous
 62
     7
370
    25
100
AcDbLine
 10
80.6402963117
 20
-21.6533274037
 30
0.0
 11
-85.7427803618
 21
20.3077769155
 31
0.0
  0
LINE
  5
412
330
3BD
100
AcDbEntity
  8
0
  6
Continuous
 62
     7
370
    25
100
AcDbLine
 10
89.4178546401
 20
-30.6760723482
 30
0.0
 11
83.0039513904
 21
-31.8788467225
 31
0.0
  0
LINE
  5
413
330
3BD
100
AcDbEntity
  8
0
  6
Continuous
 62
     7
370
    25
100
AcDbLine
 10
82.8003675511
 20
-31.8455101799
 30
0.0
 11
-87.2399926641
 21
11.0379454943
 31
0.0
  0
LINE
  5
414
330
3BD
100
AcDbEntity
  8
0
  6
Continuous
 62
     7
370
    25
100
AcDbLine
 10
-87.2399926641
 20
11.0379454943
 30
0.0
 11
67.7857521686
 21
-40.4710655686
 31
0.0
  0
LINE
  5
415
330
3BD
100
AcDbEntity
  8
0
  6
Continuous
 62
     7
370
    25
100
AcDbLine
 10
88.8002956764
 20
-31.1885859094
 30
0.0
 11
89.3998059809
 21
-30.6934805931
 31
0.0
  0
LINE
  5
416
330
3BD
100
AcDbEntity
  8
0
  6
Continuous
 62
     7
370
    25
100
AcDbLine
 10
69.0993644494
 20
-40.6581077053
 30
0.0
 11
73.5514850119
 21
-39.8232188217
 31
0.0
  0
LINE
  5
417
330
3BD
100
AcDbEntity
  8
0
  6
Continuous
 62
     7
370
    25
100
AcDbLine
 10
-85.5932874417
 20
20.5301614748
 30
0.0
 11
80.7897892319
 21
-21.4309428444
 31
0.0
  0
LINE
  5
418
330
3BD
100
AcDbEntity
  8
0
  6
Continuous
 62
     7
370
    25
100
AcDbLine
 10
80.7897892319
 20
-21.4309428444
 30
0.0
 11
85.619516885
 21
-20.5252427691
 31
0.0
  0
LINE
  5
419
330
3BD
100
AcDbEntity
  8
0
  6
Continuous
 62
     7
370
    25
100
AcDbLine
 10
85.619516885
 20
-20.5252427691
 30
0.0
 11
-80.7635597885
 21
21.4358615501
 31
0.0
  0
LINE
  5
41A
330
3BD
100
AcDbEntity
  8
0
  6
Continuous
 62
     7
370
    25
100
AcDbLine
 10
-80.7635597885
 20
21.4358615501
 30
0.0
 11
-85.5932874417
 21
20.5301614748
 31
0.0
  0
ARC
  5
41B
330
3BD
100
AcDbEntity
  8
0
  6
Continuous
 62
     7
370
    25
100
AcDbCircle
 10
85.6155845167
 20
-20.7203309233
 30
0.0
 40
0.2000000000000554
100
AcDbArc
 50
19.9350524423
 51
75.845411218
  0
ARC
  5
41C
330
3BD
100
AcDbEntity
  8
0
  6
Continuous
 62
     7
370
    25
100
AcDbCircle
 10
-85.59721981
 20
20.3350733206
 30
0.0
 40
0.1999999999999546
100
AcDbArc
 50
100.6211008688
 51
164.1600764299
  0
ARC
  5
41D
330
3BD
100
AcDbEntity
  8
0
  6
Continuous
 62
     7
370
    25
100
AcDbCircle
 10
-88.0947210148
 20
11.5325071475
 30
0.0
 40
0.2000000000000287
100
AcDbArc
 50
164.1600764299
 51
249.9435564721
  0
ARC
  5
41E
330
3BD
100
AcDbEntity
  8
0
  6
Continuous
 62
     7
370
    25
100
AcDbCircle
 10
-80.7674921569
 20
21.2407733959
 30
0.0
 40
0.1999999999999099
100
AcDbArc
 50
75.845411218
 51
100.6211008688
  0
ARC
  5
41F
330
3BD
100
AcDbEntity
  8
0
  6
Continuous
 62
     7
370
    25
100
AcDbCircle
 10
82.0774961064
 20
-27.695378018
 30
0.0
 40
6.210629507194353
100
AcDbArc
 50
100.773520189
 51
103.3800797852
  0
ARC
  5
420
330
3BD
100
AcDbEntity
  8
0
  6
Continuous
 62
     7
370
    25
100
AcDbCircle
 10
84.2193898117
 20
-37.7691323363
 30
0.0
 40
6.2106295071624
100
AcDbArc
 50
100.773520189
 51
103.3800797852
  0
ARC
  5
421
330
3BD
100
AcDbEntity
  8
0
  6
Continuous
 62
     7
370
    25
100
AcDbCircle
 10
82.8559282741
 20
-31.72810877
 30
0.0
 40
0.2112646995052261
100
AcDbArc
 50
314.4793686704
 51
16.5377335444
  0
ARC
  5
422
330
3BD
100
AcDbEntity
  8
0
  6
Continuous
 62
     7
370
    25
100
AcDbCircle
 10
82.9961460847
 20
-31.6523488762
 30
0.0
 40
0.2266322950228841
100
AcDbArc
 50
199.2538288932
 51
271.9736795598
  0
ARC
  5
423
330
3BD
100
AcDbEntity
  8
0
  6
Continuous
 62
     7
370
    25
100
AcDbCircle
 10
82.9873688221
 20
-31.6588976431
 30
0.0
 40
0.2266121175571782
100
AcDbArc
 50
199.2473717898
 51
271.9729018793
  0
ARC
  5
424
330
3BD
100
AcDbEntity
  8
0
  6
Continuous
 62
     7
370
    25
100
AcDbCircle
 10
82.9821595677
 20
-31.7425421088
 30
0.0
 40
0.2089276452948654
100
AcDbArc
 50
177.5469142008
 51
209.5274717844
  0
ARC
  5
425
330
3BD
100
AcDbEntity
  8
0
  6
Continuous
 62
     7
370
    25
100
AcDbCircle
 10
82.934238398
 20
-31.6872337151
 30
0.0
 40
0.2072989217675706
100
AcDbArc
 50
229.7753291932
 51
287.0935568438
  0
ARC
  5
426
330
3BD
100
AcDbEntity
  8
0
  6
Continuous
 62
     7
370
    25
100
AcDbCircle
 10
69.0715623398
 20
-40.4897870185
 30
0.0
 40
0.170601321571267
100
AcDbArc
 50
220.712401008
 51
279.3790597174
  0
ARC
  5
427
330
3BD
100
AcDbEntity
  8
0
  6
Continuous
 62
     7
370
    25
100
AcDbCircle
 10
65.099428375
 20
-19.1737663226
 30
0.0
 40
21.76916029847827
100
AcDbArc
 50
280.1674648561
 51
324.4018916326
  0
ARC
  5
428
330
3BD
100
AcDbEntity
  8
0
  6
Continuous
 62
     7
370
    25
100
AcDbCircle
 10
65.1830103577
 20
-19.0630085838
 30
0.0
 40
21.94734916652181
100
AcDbArc
 50
280.2790907415
 51
324.2511726967
  0
ARC
  5
429
330
3BD
100
AcDbEntity
  8
0
  6
Continuous
 62
     7
370
    25
100
AcDbCircle
 10
-87.0582006475
 20
11.1409135654
 30
0.0
 40
0.2089276452939521
100
AcDbArc
 50
177.5469142007
 51
209.5274717845
  0
ARC
  5
42A
330
3BD
100
AcDbEntity
  8
0
  6
Continuous
 62
     7
370
    25
100
AcDbCircle
 10
68.6104337872
 20
-38.343730893
 30
0.0
 40
2.281589926794863
100
AcDbArc
 50
248.8107024756
 51
278.3622384855
  0
ARC
  5
42B
330
3BD
100
AcDbEntity
  8
0
  6
Continuous
 62
     7
370
    25
100
AcDbCircle
 10
68.4199738998
 20
-12.9788816237
 30
0.0
 40
27.3304014952878
100
AcDbArc
 50
280.8219929317
 51
318.2193891102
  0
ARC
  5
42C
330
3BD
100
AcDbEntity
  8
0
  6
Continuous
 62
     7
370
    25
100
AcDbCircle
 10
80.8640907145
 20
-21.6423291855
 30
0.0
 40
0.2240644896382905
100
AcDbArc
 50
109.3663779796
 51
182.8134971485
  0
ARC
  5
42D
330
3BD
100
AcDbEntity
  8
0
  6
Continuous
 62
     7
370
    25
100
AcDbCircle
 10
80.7143078725
 20
-21.6203995248
 30
0.0
 40
0.2039393766542955
100
AcDbArc
 50
7.3757460302
 51
68.277188285
  0
ARC
  5
42E
330
3BD
100
AcDbEntity
  8
0
  6
Continuous
 62
     7
370
    25
100
AcDbCircle
 10
-85.518985959
 20
20.3187751337
 30
0.0
 40
0.2240644896383568
100
AcDbArc
 50
109.3663779796
 51
182.8134971485
  0
ARC
  5
42F
330
3BD
100
AcDbEntity
  8
0
  6
Continuous
 62
     7
370
    25
100
AcDbCircle
 10
85.5440355256
 20
-20.7146994495
 30
0.0
 40
0.2039393766543225
100
AcDbArc
 50
7.3757460302
 51
68.277188285
  0
ARC
  5
430
330
3BD
100
AcDbEntity
  8
0
  6
Continuous
 62
     7
370
    25
100
AcDbCircle
 10
67.8690192495
 20
-40.4362607152
 30
0.0
 40
0.0897798709772939
100
AcDbArc
 50
252.0204358621
 51
283.3072613878
  0
ARC
  5
431
330
3BD
100
AcDbEntity
  8
0
  6
Continuous
 62
     7
370
    25
100
AcDbCircle
 10
68.7483482883
 20
-38.307621933
 30
0.0
 40
2.376551222115597
100
AcDbArc
 50
248.8195268705
 51
278.4936505574
  0
ARC
  5
432
330
3BD
100
AcDbEntity
  8
0
  6
Continuous
 62
     8
370
    25
100
AcDbCircle
 10
85.7149386491
 20
-20.5757933069
 30
0.0
 40
0.1170031216870085
100
AcDbArc
 50
285.5411927439
 51
319.2682647004
  0
ARC
  5
433
330
3BD
100
AcDbEntity
  8
0
  6
Continuous
 62
     8
370
    25
100
AcDbCircle
 10
67.8749117366
 20
-40.4289563965
 30
0.0
 40
0.0986033009328331
100
AcDbArc
 50
205.2808972922
 51
250.0734315041
  0
ARC
  5
434
330
3BD
100
AcDbEntity
  8
0
  6
Continuous
 62
     8
370
    25
100
AcDbCircle
 10
-87.150833096
 20
11.0800546663
 30
0.0
 40
0.0986033009328604
100
AcDbArc
 50
205.2808972922
 51
250.0734315041
  0
ARC
  5
435
330
3BD
100
AcDbEntity
  8
0
  6
Continuous
 62
     8
370
    25
100
AcDbCircle
 10
-88.0935017378
 20
11.4768341815
 30
0.0
 40
0.1494976499039297
100
AcDbArc
 50
169.0581429765
 51
242.1632927334
  0
ARC
  5
436
330
3BD
100
AcDbEntity
  8
0
  6
Continuous
 62
     8
370
    25
100
AcDbCircle
 10
-87.1201570033
 20
11.1214793887
 30
0.0
 40
0.1494976499040374
100
AcDbArc
 50
169.0581429765
 51
242.1632927334
  0
VIEWPORT
  5
449
330
3BD
100
AcDbEntity
  8
0
100
AcDbViewport
 10
0.0
 20
0.0
 30
0.0
 40
205.6
 41
156.0
 68
     1
 69
     1
 12
0.0180555842
 22
-13.4691899598
 13
0.0
 23
0.0
 14
10.0
 24
10.0
 15
10.0
 25
10.0
 16
0.0
 26
0.0
 36
1.0
 17
0.0
 27
0.0
 37
0.0
 42
50.0
 43
0.0
 44
0.0
 45
193.3950521986
 50
0.0
 51
0.0
 72
   100
 90
   557152
  1

281
     0
 71
     1
 74
     0
110
0.0
120
0.0
130
0.0
111
1.0
121
0.0
131
0.0
112
0.0
122
1.0
132
0.0
 79
     0
146
0.0
  0
ENDBLK
  5
3C0
330
3BD
100
AcDbEntity
  8
0
100
AcDbBlockEnd
  0
ENDSEC
  0
SECTION
  2
ENTITIES
  0
LWPOLYLINE
  5
79
330
1F
100
AcDbEntity
  8
0
  6
Continuous
 62
     7
370
    25
100
AcDbPolyline
 90
        9
 70
   128
 43
0.0
 10
124.8774024665
 20
-10.0872170684
 10
124.8758333033
 20
-10.0883319107
 10
124.8742641225
 20
-10.0894467282
 10
124.8726949242
 20
-10.090561521
 10
124.8711257082
 20
-10.091676289
 10
124.8695564747
 20
-10.0927910323
 10
124.8679872235
 20
-10.0939057508
 10
124.8664179548
 20
-10.0950204445
 10
124.8648486684
 20
-10.0961351135
  0
LWPOLYLINE
  5
7B
330
1F
100
AcDbEntity
  8
0
  6
Continuous
 62
     7
370
    25
100
AcDbPolyline
 90
        9
 70
   128
 43
0.0
 10
124.7490327142
 20
-9.9330809361
 10
124.7505994275
 20
-9.9319680948
 10
124.7521661232
 20
-9.9308552287
 10
124.7537328014
 20
-9.929742338
 10
124.755299462
 20
-9.9286294225
 10
124.756866105
 20
-9.9275164823
 10
124.7584327304
 20
-9.9264035174
 10
124.7599993383
 20
-9.9252905277
 10
124.7615659287
 20
-9.9241775133
  0
LWPOLYLINE
  5
80
330
1F
100
AcDbEntity
  8
0
  6
Continuous
 62
     7
370
    25
100
AcDbPolyline
 90
        9
 70
   128
 43
0.0
 10
124.8648486684
 20
-10.0961351135
 10
124.8552383121
 20
-10.1008192062
 10
124.8437732253
 20
-10.1025739875
 10
124.8306536296
 20
-10.1013688126
 10
124.8161086401
 20
-10.097224728
 10
124.8003922645
 20
-10.0902141044
 10
124.783778967
 20
-10.0804593725
 10
124.7665588754
 20
-10.0681308847
 10
124.7490327142
 20
-10.0534439407
  0
CIRCLE
  5
91
330
1F
100
AcDbEntity
  8
0
  6
Continuous
 62
     7
370
    25
100
AcDbCircle
 10
-96.0
 20
-5.0
 30
0.0
 40
1.750000000000014
  0
CIRCLE
  5
92
330
1F
100
AcDbEntity
  8
0
  6
Continuous
 62
     7
370
    25
100
AcDbCircle
 10
96.0
 20
-5.0
 30
0.0
 40
1.75
  0
LWPOLYLINE
  5
98
330
1F
100
AcDbEntity
  8
0
  6
Continuous
 62
     7
370
    25
100
AcDbPolyline
 90
        9
 70
   128
 43
0.0
 10
91.7501299528
 20
-26.6252347731
 10
91.7591385351
 20
-26.6421088068
 10
91.7680172262
 20
-26.657004074
 10
91.7766380079
 20
-26.6697058059
 10
91.7848765804
 20
-26.6800308611
 10
91.792614155
 20
-26.6878303668
 10
91.7997391668
 20
-26.6929918651
 10
91.806148883
 20
-26.6954409342
 10
91.8117508845
 20
-26.6951422622
  0
LWPOLYLINE
  5
9B
330
1F
100
AcDbEntity
  8
0
  6
Continuous
 62
     8
370
    25
100
AcDbPolyline
 90
        3
 70
   128
 43
0.0
 10
91.7501299528
 20
-26.6252347731
 10
95.6463606415
 20
-25.2901947437
 10
99.4241901376
 20
-23.8525774584
  0
LINE
  5
9D
330
1F
100
AcDbEntity
  8
0
  6
Continuous
 62
     7
370
    25
100
AcDbLine
 10
124.7615659287
 20
-9.9241775133
 30
0.0
 11
124.9503375999
 21
-9.8581074284
 31
0.0
  0
LINE
  5
9E
330
1F
100
AcDbEntity
  8
0
  6
Continuous
 62
     7
370
    25
100
AcDbLine
 10
124.8774024665
 20
-10.0872170684
 30
0.0
 11
124.7615659287
 21
-9.9241775133
 31
0.0
  0
LINE
  5
9F
330
1F
100
AcDbEntity
  8
0
  6
Continuous
 62
     7
370
    25
100
AcDbLine
 10
-123.3180473787
 20
-10.1324635586
 30
0.0
 11
-123.3023448366
 21
-9.9330809361
 31
0.0
  0
LINE
  5
A0
330
1F
100
AcDbEntity
  8
0
  6
Continuous
 62
     7
370
    25
100
AcDbLine
 10
-123.3023448366
 20
-10.0534439407
 30
0.0
 11
-123.3023448366
 21
-9.9330809361
 31
0.0
  0
LINE
  5
A1
330
1F
100
AcDbEntity
  8
0
  6
Continuous
 62
     7
370
    25
100
AcDbLine
 10
124.8648486684
 20
-10.0961351135
 30
0.0
 11
124.7490327142
 21
-9.9330809361
 31
0.0
  0
LINE
  5
A2
330
1F
100
AcDbEntity
  8
0
  6
Continuous
 62
     7
370
    25
100
AcDbLine
 10
89.878664041
 20
-26.9229454833
 30
0.0
 11
-124.7411573023
 21
-10.020385369
 31
0.0
  0
LINE
  5
A3
330
1F
100
AcDbEntity
  8
0
  6
Continuous
 62
     7
370
    25
100
AcDbLine
 10
-124.7411573023
 20
-10.020385369
 30
0.0
 11
-124.7254547603
 21
-9.8210027465
 31
0.0
  0
LINE
  5
A4
330
1F
100
AcDbEntity
  8
0
  6
Continuous
 62
     7
370
    25
100
AcDbLine
 10
-124.7254547603
 20
-9.8210027465
 30
0.0
 11
-123.3023448366
 21
-9.9330809361
 31
0.0
  0
LINE
  5
A5
330
1F
100
AcDbEntity
  8
0
  6
Continuous
 62
     7
370
    25
100
AcDbLine
 10
124.7490327142
 20
-10.0534439407
 30
0.0
 11
124.7490327142
 21
-9.9330809361
 31
0.0
  0
LINE
  5
A6
330
1F
100
AcDbEntity
  8
0
  6
Continuous
 62
     7
370
    25
100
AcDbLine
 10
124.7615659287
 20
-9.9241775133
 30
0.0
 11
121.358103799
 21
-0.2
 31
0.0
  0
LINE
  5
A7
330
1F
100
AcDbEntity
  8
0
  6
Continuous
 62
     7
370
    25
100
AcDbLine
 10
121.358103799
 20
-0.2
 30
0.0
 11
121.5468754703
 21
-0.1339299151
 31
0.0
  0
LINE
  5
A8
330
1F
100
AcDbEntity
  8
0
  6
Continuous
 62
     7
370
    25
100
AcDbLine
 10
121.5468754703
 20
-0.1339299151
 30
0.0
 11
124.9503375999
 21
-9.8581074284
 31
0.0
  0
LINE
  5
A9
330
1F
100
AcDbEntity
  8
0
  6
Continuous
 62
     7
370
    25
100
AcDbLine
 10
124.7490327142
 20
-10.0534439407
 30
0.0
 11
-123.3023448366
 21
-10.0534439407
 31
0.0
  0
LINE
  5
AA
330
1F
100
AcDbEntity
  8
0
  6
Continuous
 62
     7
370
    25
100
AcDbLine
 10
-123.3023448366
 20
-9.9330809361
 30
0.0
 11
124.7490327142
 21
-9.9330809361
 31
0.0
  0
LINE
  5
AB
330
1F
100
AcDbEntity
  8
0
  6
Continuous
 62
     7
370
    25
100
AcDbLine
 10
-121.358103799
 20
-0.2
 30
0.0
 11
-121.5468754703
 21
-0.1339299151
 31
0.0
  0
LINE
  5
AC
330
1F
100
AcDbEntity
  8
0
  6
Continuous
 62
     7
370
    25
100
AcDbLine
 10
-121.358103799
 20
-0.2
 30
0.0
 11
-121.358103799
 21
0.0
 31
0.0
  0
LINE
  5
AD
330
1F
100
AcDbEntity
  8
0
  6
Continuous
 62
     7
370
    25
100
AcDbLine
 10
121.358103799
 20
-0.2
 30
0.0
 11
121.358103799
 21
0.0
 31
0.0
  0
LINE
  5
AE
330
1F
100
AcDbEntity
  8
0
  6
Continuous
 62
     7
370
    25
100
AcDbLine
 10
-121.358103799
 20
-0.2
 30
0.0
 11
-124.7254547603
 21
-9.8210027465
 31
0.0
  0
LINE
  5
AF
330
1F
100
AcDbEntity
  8
0
  6
Continuous
 62
     7
370
    25
100
AcDbLine
 10
-124.7254547603
 20
-9.8210027465
 30
0.0
 11
-124.9142264315
 21
-9.7549326615
 31
0.0
  0
LINE
  5
B0
330
1F
100
AcDbEntity
  8
0
  6
Continuous
 62
     7
370
    25
100
AcDbLine
 10
-124.9142264315
 20
-9.7549326615
 30
0.0
 11
-121.5468754703
 21
-0.1339299151
 31
0.0
  0
LINE
  5
B1
330
1F
100
AcDbEntity
  8
0
  6
Continuous
 62
     7
370
    25
100
AcDbLine
 10
121.358103799
 20
-0.2
 30
0.0
 11
-121.358103799
 21
-0.2
 31
0.0
  0
LINE
  5
B2
330
1F
100
AcDbEntity
  8
0
  6
Continuous
 62
     7
370
    25
100
AcDbLine
 10
-121.358103799
 20
0.0
 30
0.0
 11
121.358103799
 21
0.0
 31
0.0
  0
LINE
  5
B3
330
1F
100
AcDbEntity
  8
0
  6
Continuous
 62
     7
370
    25
100
AcDbLine
 10
-123.3023448366
 20
-10.0534439407
 30
0.0
 11
89.894366583
 21
-26.8439258654
 31
0.0
  0
ARC
  5
B4
330
1F
100
AcDbEntity
  8
0
  6
Continuous
 62
     7
370
    25
100
AcDbCircle
 10
124.7615659287
 20
-9.9241775133
 30
0.0
 40
0.1999999999999267
100
AcDbArc
 50
305.3930778656
 51
19.2900462192
  0
ARC
  5
B5
330
1F
100
AcDbEntity
  8
0
  6
Continuous
 62
     7
370
    25
100
AcDbCircle
 10
-123.5422936656
 20
-10.0468320175
 30
0.0
 40
0.2400399092251657
100
AcDbArc
 50
339.0999529406
 51
358.4215823967
  0
ARC
  5
B6
330
1F
100
AcDbEntity
  8
0
  6
Continuous
 62
     7
370
    25
100
AcDbCircle
 10
-121.358103799
 20
-0.2
 30
0.0
 40
0.1999999999999844
100
AcDbArc
 50
90.0
 51
160.7099537808
  0
ARC
  5
B7
330
1F
100
AcDbEntity
  8
0
  6
Continuous
 62
     7
370
    25
100
AcDbCircle
 10
121.358103799
 20
-0.2
 30
0.0
 40
0.1999999999999993
100
AcDbArc
 50
19.2900462192
 51
90.0
  0
ARC
  5
B8
330
1F
100
AcDbEntity
  8
0
  6
Continuous
 62
     7
370
    25
100
AcDbCircle
 10
-124.7254547603
 20
-9.8210027465
 30
0.0
 40
0.2000000000000112
100
AcDbArc
 50
160.7099537808
 51
265.4969186168
  0
ARC
  5
B9
330
1F
100
AcDbEntity
  8
0
  6
Continuous
 62
     7
370
    25
100
AcDbCircle
 10
89.6544177541
 20
-26.8373139421
 30
0.0
 40
0.2400399092245788
100
AcDbArc
 50
339.0999529406
 51
358.4215823968
  0
ARC
  5
BA
330
1F
100
AcDbEntity
  8
0
  6
Continuous
 62
     7
370
    25
100
AcDbCircle
 10
90.2712275915
 20
-22.0587429242
 30
0.0
 40
4.80000000000004
100
AcDbArc
 50
265.4969186169
 51
287.9450454809
  0
ARC
  5
BB
330
1F
100
AcDbEntity
  8
0
  6
Continuous
 62
     7
370
    25
100
AcDbCircle
 10
54.2296522241
 20
89.2289015106
 30
0.0
 40
121.7783525224963
100
AcDbArc
 50
291.7847860753
 51
305.3858446311
  0
ARC
  5
BC
330
1F
100
AcDbEntity
  8
0
  6
Continuous
 62
     7
370
    25
100
AcDbCircle
 10
54.2296522241
 20
89.3492645152
 30
0.0
 40
121.9783525221795
100
AcDbArc
 50
287.9450454809
 51
305.3858446311
  0
ARC
  5
BD
330
1F
100
AcDbEntity
  8
0
  6
Continuous
 62
     7
370
    25
100
AcDbCircle
 10
90.2712275915
 20
-21.9383799196
 30
0.0
 40
4.999999999999805
100
AcDbArc
 50
265.4969186169
 51
287.9450454809
  0
SPLINE
  5
D8
330
1B
100
AcDbEntity
 67
     1
  8
0
  6
Continuous
 62
     7
370
    25
100
AcDbSpline
210
0.0
220
0.0
230
1.0
 70
     8
 71
     3
 72
     8
 73
     4
 74
     0
 42
0.000000001
 43
0.00000001
 40
0.0
 40
0.0
 40
0.0
 40
0.0
 40
0.0000453377850437
 40
0.0000453377850437
 40
0.0000453377850437
 40
0.0000453377850437
 10
-124.8413256270231
 20
-5.522567827752872
 30
0.0
 10
-124.853566785714
 20
-5.520829741249968
 30
0.0
 10
-124.8657194495013
 20
-5.517489984524675
 30
0.0
 10
-124.8774024665147
 20
-5.512694332253592
 30
0.0
  0
LWPOLYLINE
  5
DD
330
1B
100
AcDbEntity
 67
     1
  8
0
  6
Continuous
 62
     7
370
    25
100
AcDbPolyline
 90
        9
 70
   128
 43
0.0
 10
124.8036159988
 20
-5.5010194688
 10
124.8366858731
 20
-5.4938405227
 10
124.8658257474
 20
-5.4784080319
 10
124.8900060562
 20
-5.4552672547
 10
124.9083724649
 20
-5.4252357974
 10
124.9202760542
 20
-5.3893747267
 10
124.9252962486
 20
-5.3489510801
 10
124.9232556753
 20
-5.3053930996
 10
124.9142264315
 20
-5.2602397688
  0
LWPOLYLINE
  5
E8
330
1B
100
AcDbEntity
 67
     1
  8
0
  6
Continuous
 62
     7
370
    25
100
AcDbPolyline
 90
        5
 70
   128
 43
0.0
 10
121.1329495008
 20
-5.5
 10
121.4226753521
 20
-5.5017772622
 10
121.5186574759
 20
-5.5070539626
 10
121.4179209183
 20
-5.5156665507
 10
121.3947749028
 20
-5.516813367
  0
SPLINE
  5
EA
330
1B
100
AcDbEntity
 67
     1
  8
0
  6
Continuous
 62
     7
370
    25
100
AcDbSpline
210
0.0
220
0.0
230
1.0
 70
     8
 71
     3
 72
    17
 73
    13
 74
     0
 42
0.000000001
 43
0.00000001
 40
0.0
 40
0.0
 40
0.0
 40
0.0
 40
0.288771671493535
 40
0.5708923146078912
 40
0.7064457192070678
 40
0.7938590198435599
 40
0.8339769085165475
 40
0.867455779661461
 40
0.8923676097873
 40
0.9173212286375343
 40
0.950295032286034
 40
1.0
 40
1.0
 40
1.0
 40
1.0
 10
-124.2808420280302
 20
-5.590558331355153
 30
0.0
 10
-124.3242248651591
 20
-5.582682772721379
 30
0.0
 10
-124.4099913400169
 20
-5.567113046390499
 30
0.0
 10
-124.5004902475248
 20
-5.544839450280049
 30
0.0
 10
-124.5545356486045
 20
-5.527536468493741
 30
0.0
 10
-124.5746296054466
 20
-5.517637476142376
 30
0.0
 10
-124.5792494308315
 20
-5.511198983562263
 30
0.0
 10
-124.5767289413445
 20
-5.507206718686621
 30
0.0
 10
-124.5687712843349
 20
-5.504172898176884
 30
0.0
 10
-124.555916338618
 20
-5.501911237568843
 30
0.0
 10
-124.5350954281466
 20
-5.500249599530993
 30
0.0
 10
-124.518095047175
 20
-5.50009371495862
 30
0.0
 10
-124.5078747285443
 20
-5.5
 30
0.0
  0
LWPOLYLINE
  5
ED
330
1B
100
AcDbEntity
 67
     1
  8
0
  6
Continuous
 62
     7
370
    25
100
AcDbPolyline
 90
        6
 70
   128
 43
0.0
 10
-91.8149381197
 20
-15.4630429139
 10
-91.8114078732
 20
-15.4748702773
 10
-91.8001352845
 20
-15.4946200476
 10
-91.7854758165
 20
-15.5015232404
 10
-91.7684223603
 20
-15.4951122999
 10
-91.7501299528
 20
-15.4758214415
  0
LWPOLYLINE
  5
EE
330
1B
100
AcDbEntity
 67
     1
  8
0
  6
Continuous
 62
     7
370
    25
100
AcDbPolyline
 90
        4
 70
   128
 43
0.0
 10
-89.8847969582
 20
-15.6377368144
 10
-89.8851041999
 20
-15.6377134793
 10
-89.8895686317
 20
-15.6299492186
 10
-89.894366583
 20
-15.6088396411
  0
LINE
  5
F3
330
1B
100
AcDbEntity
 67
     1
  8
0
  6
Continuous
 62
     7
370
    25
100
AcDbLine
 10
124.9254547603
 20
-5.3399489049
 30
0.0
 11
124.9254547603
 21
3.3
 31
0.0
  0
LINE
  5
F4
330
1B
100
AcDbEntity
 67
     1
  8
0
  6
Continuous
 62
     7
370
    25
100
AcDbLine
 10
-124.9615659287
 20
3.3
 30
0.0
 11
-124.9615659287
 21
-5.3605838582
 31
0.0
  0
LINE
  5
F5
330
1B
100
AcDbEntity
 67
     1
  8
0
  6
Continuous
 62
     7
370
    25
100
AcDbLine
 10
-89.8847969582
 20
-15.6377368144
 30
0.0
 11
121.3947749028
 21
-5.516813367
 31
0.0
  0
LINE
  5
F6
330
1B
100
AcDbEntity
 67
     1
  8
0
  6
Continuous
 62
     7
370
    25
100
AcDbLine
 10
-121.5468754703
 20
-3.3360392195
 30
0.0
 11
121.5468754703
 21
-3.3360392195
 31
0.0
  0
LINE
  5
F7
330
1B
100
AcDbEntity
 67
     1
  8
0
  6
Continuous
 62
     7
370
    25
100
AcDbLine
 10
121.358103799
 20
-3.5321553546
 30
0.0
 11
121.358103799
 21
3.5
 31
0.0
  0
LINE
  5
F8
330
1B
100
AcDbEntity
 67
     1
  8
0
  6
Continuous
 62
     7
370
    25
100
AcDbLine
 10
124.9254547603
 20
3.3
 30
0.0
 11
-124.9615659287
 21
3.3
 31
0.0
  0
LINE
  5
F9
330
1B
100
AcDbEntity
 67
     1
  8
0
  6
Continuous
 62
     7
370
    25
100
AcDbLine
 10
121.5468754703
 20
3.3
 30
0.0
 11
121.5468754703
 21
-3.3360392195
 31
0.0
  0
LINE
  5
FA
330
1B
100
AcDbEntity
 67
     1
  8
0
  6
Continuous
 62
     7
370
    25
100
AcDbLine
 10
121.358103799
 20
-3.5321553546
 30
0.0
 11
-121.358103799
 21
-3.5321553546
 31
0.0
  0
LINE
  5
FB
330
1B
100
AcDbEntity
 67
     1
  8
0
  6
Continuous
 62
     7
370
    25
100
AcDbLine
 10
-121.358103799
 20
3.5
 30
0.0
 11
-121.358103799
 21
-3.5321553546
 31
0.0
  0
LINE
  5
FC
330
1B
100
AcDbEntity
 67
     1
  8
0
  6
Continuous
 62
     7
370
    25
100
AcDbLine
 10
-121.5468754703
 20
-3.3360392195
 30
0.0
 11
-121.5468754703
 21
3.3
 31
0.0
  0
LINE
  5
FD
330
1B
100
AcDbEntity
 67
     1
  8
0
  6
Continuous
 62
     7
370
    25
100
AcDbLine
 10
-124.7615659287
 20
3.5
 30
0.0
 11
124.7254547603
 21
3.5
 31
0.0
  0
LINE
  5
FE
330
1B
100
AcDbEntity
 67
     1
  8
0
  6
Continuous
 62
     7
370
    25
100
AcDbLine
 10
-121.358103799
 20
-3.5321553546
 30
0.0
 11
-124.841325627
 21
-5.5225678278
 31
0.0
  0
LINE
  5
FF
330
1B
100
AcDbEntity
 67
     1
  8
0
  6
Continuous
 62
     7
370
    25
100
AcDbLine
 10
-124.9503375999
 20
-5.2808747221
 30
0.0
 11
-121.5468754703
 21
-3.3360392195
 31
0.0
  0
LINE
  5
100
330
1B
100
AcDbEntity
 67
     1
  8
0
  6
Continuous
 62
     7
370
    25
100
AcDbLine
 10
124.8036159988
 20
-5.5010194688
 30
0.0
 11
121.358103799
 21
-3.5321553546
 31
0.0
  0
LINE
  5
101
330
1B
100
AcDbEntity
 67
     1
  8
0
  6
Continuous
 62
     7
370
    25
100
AcDbLine
 10
121.5468754703
 20
-3.3360392195
 30
0.0
 11
124.9142264315
 21
-5.2602397688
 31
0.0
  0
LINE
  5
102
330
1B
100
AcDbEntity
 67
     1
  8
0
  6
Continuous
 62
     7
370
    25
100
AcDbLine
 10
-124.9503375999
 20
3.3
 30
0.0
 11
-124.9503375999
 21
-5.2808747221
 31
0.0
  0
LINE
  5
103
330
1B
100
AcDbEntity
 67
     1
  8
0
  6
Continuous
 62
     7
370
    25
100
AcDbLine
 10
124.9142264315
 20
-5.2602397688
 30
0.0
 11
124.9142264315
 21
3.3
 31
0.0
  0
LINE
  5
104
330
1B
100
AcDbEntity
 67
     1
  8
0
  6
Continuous
 62
     7
370
    25
100
AcDbLine
 10
124.7411573023
 20
-5.5040770738
 30
0.0
 11
120.1515135136
 21
-5.5763693062
 31
0.0
  0
LINE
  5
105
330
1B
100
AcDbEntity
 67
     1
  8
0
  6
Continuous
 62
     7
370
    25
100
AcDbLine
 10
-124.5078747285
 20
-5.5
 30
0.0
 11
121.1329495008
 21
-5.5
 31
0.0
  0
LINE
  5
106
330
1B
100
AcDbEntity
 67
     1
  8
0
  6
Continuous
 62
     7
370
    25
100
AcDbLine
 10
-124.2657757053
 20
-5.6037896208
 30
0.0
 11
-124.841325627
 21
-5.5225678278
 31
0.0
  0
LINE
  5
107
330
1B
100
AcDbEntity
 67
     1
  8
0
  6
Continuous
 62
     7
370
    25
100
AcDbLine
 10
-89.894366583
 20
-15.6088396411
 30
0.0
 11
121.1329495008
 21
-5.5
 31
0.0
  0
ARC
  5
108
330
1B
100
AcDbEntity
 67
     1
  8
0
  6
Continuous
 62
     7
370
    25
100
AcDbCircle
 10
124.7254547603
 20
3.3
 30
0.0
 40
0.2000000000000028
100
AcDbArc
 50
0.0
 51
90.0
  0
ARC
  5
109
330
1B
100
AcDbEntity
 67
     1
  8
0
  6
Continuous
 62
     7
370
    25
100
AcDbCircle
 10
-124.7615659287
 20
3.3
 30
0.0
 40
0.2000000000000082
100
AcDbArc
 50
90.0
 51
180.0
  0
ARC
  5
10A
330
1B
100
AcDbEntity
 67
     1
  8
0
  6
Continuous
 62
     7
370
    25
100
AcDbCircle
 10
121.33868054
 20
-3.3245502934
 30
0.0
 40
0.2085116889021321
100
AcDbArc
 50
275.3449594857
 51
356.8414216405
  0
ARC
  5
10B
330
1B
100
AcDbEntity
 67
     1
  8
0
  6
Continuous
 62
     7
370
    25
100
AcDbCircle
 10
-121.33868054
 20
-3.3245502934
 30
0.0
 40
0.2085116889021127
100
AcDbArc
 50
183.1585783595
 51
264.6550405143
  0
ARC
  5
10C
330
1B
100
AcDbEntity
 67
     1
  8
0
  6
Continuous
 62
     7
370
    25
100
AcDbCircle
 10
-121.3523226666
 20
3.3054565702
 30
0.0
 40
0.1946293081416853
100
AcDbArc
 50
91.7021239965
 51
181.6065381607
  0
ARC
  5
10D
330
1B
100
AcDbEntity
 67
     1
  8
0
  6
Continuous
 62
     7
370
    25
100
AcDbCircle
 10
121.3523226666
 20
3.3054565702
 30
0.0
 40
0.1946293081416841
100
AcDbArc
 50
358.3934618393
 51
88.2978760035
  0
ARC
  5
10E
330
1B
100
AcDbEntity
 67
     1
  8
0
  6
Continuous
 62
     7
370
    25
100
AcDbCircle
 10
-124.7748145893
 20
-5.3530348748
 30
0.0
 40
0.1897772770951643
100
AcDbArc
 50
157.6516982104
 51
237.2775594881
  0
ARC
  5
10F
330
1B
100
AcDbEntity
 67
     1
  8
0
  6
Continuous
 62
     7
370
    25
100
AcDbCircle
 10
-124.7557847962
 20
3.3054565702
 30
0.0
 40
0.1946293081416614
100
AcDbArc
 50
91.7021239965
 51
181.6065381607
  0
ARC
  5
110
330
1B
100
AcDbEntity
 67
     1
  8
0
  6
Continuous
 62
     7
370
    25
100
AcDbCircle
 10
124.7196736278
 20
3.3054565702
 30
0.0
 40
0.1946293081417118
100
AcDbArc
 50
358.3934618393
 51
88.2978760035
  0
ARC
  5
111
330
1B
100
AcDbEntity
 67
     1
  8
0
  6
Continuous
 62
     7
370
    25
100
AcDbCircle
 10
124.7277675319
 20
-4.5910989637
 30
0.0
 40
0.9130762922614094
100
AcDbArc
 50
270.8402417578
 51
274.7650023022
  0
ARC
  5
112
330
1B
100
AcDbEntity
 67
     1
  8
0
  6
Continuous
 62
     7
370
    25
100
AcDbCircle
 10
-60.9384679893
 20
144.4723087635
 30
0.0
 40
162.8888052292819
100
AcDbArc
 50
247.0291606015
 51
259.0963708838
  0
ARC
  5
113
330
1B
100
AcDbEntity
 67
     1
  8
0
  6
Continuous
 62
     7
370
    25
100
AcDbCircle
 10
-90.2730574997
 20
-7.8804608595
 30
0.0
 40
7.737651155411994
100
AcDbArc
 50
258.9950287881
 51
272.8052521332
  0
VIEWPORT
  5
437
330
1B
100
AcDbEntity
 67
     1
  8
0
100
AcDbViewport
 10
0.0
 20
0.0
 30
0.0
 40
205.6
 41
156.0
 68
     1
 69
     1
 12
0.0180555842
 22
-13.4691899598
 13
0.0
 23
0.0
 14
10.0
 24
10.0
 15
10.0
 25
10.0
 16
0.0
 26
0.0
 36
1.0
 17
0.0
 27
0.0
 37
0.0
 42
50.0
 43
0.0
 44
0.0
 45
193.3950521986
 50
0.0
 51
0.0
 72
   100
 90
   557152
  1

281
     0
 71
     1
 74
     0
110
0.0
120
0.0
130
0.0
111
1.0
121
0.0
131
0.0
112
0.0
122
1.0
132
0.0
 79
     0
146
0.0
  0
ENDSEC
  0
SECTION
  2
OBJECTS
  0
DICTIONARY
  5
C
330
0
100
AcDbDictionary
281
     1
  3
ACAD_GROUP
350
D
  3
ACAD_LAYOUT
350
1A
  3
ACAD_MLINESTYLE
350
17
  3
ACAD_PLOTSETTINGS
350
19
  3
ACAD_PLOTSTYLENAME
350
E
  3
ACAD_SCALELIST
350
47
  0
DICTIONARY
  5
D
102
{ACAD_REACTORS
330
C
102
}
330
C
100
AcDbDictionary
281
     1
  0
DICTIONARY
  5
1A
102
{ACAD_REACTORS
330
C
102
}
330
C
100
AcDbDictionary
281
     1
  3
_Bottom
350
1DF
  3
_Dimetric
350
2FA
  3
_Front
350
158
  3
_Isometric
350
238
  3
_Left
350
194
  3
_Right
350
26
  3
_Top
350
1E
  3
_Trimetric
350
298
  3
ISO PERSP
350
35B
  3
ISO PERSP BACK
350
3BE
  3
Model
350
22
  0
DICTIONARY
  5
17
102
{ACAD_REACTORS
330
C
102
}
330
C
100
AcDbDictionary
281
     1
  3
Standard
350
18
  0
DICTIONARY
  5
19
102
{ACAD_REACTORS
330
C
102
}
330
C
100
AcDbDictionary
281
     1
  0
ACDBDICTIONARYWDFLT
  5
E
102
{ACAD_REACTORS
330
C
102
}
330
C
100
AcDbDictionary
281
     1
  3
Normal
350
F
100
AcDbDictionaryWithDefault
340
F
  0
DICTIONARY
  5
47
102
{ACAD_REACTORS
330
C
102
}
330
C
100
AcDbDictionary
281
     1
  3
A0
350
48
  3
A1
350
49
  3
A2
350
4A
  3
A3
350
4B
  3
A4
350
4C
  3
A5
350
4D
  3
A6
350
4E
  3
A7
350
4F
  3
A8
350
50
  3
A9
350
51
  3
B0
350
52
  3
B1
350
53
  3
B2
350
54
  3
B3
350
55
  3
B4
350
56
  3
B5
350
57
  3
B6
350
58
  3
B7
350
59
  3
B8
350
5A
  3
B9
350
5B
  3
C0
350
5C
  3
C1
350
5D
  3
C2
350
5E
  3
C3
350
5F
  3
C4
350
60
  3
C5
350
61
  3
C6
350
62
  3
C7
350
63
  3
C8
350
64
  3
C9
350
65
  3
D0
350
66
  3
D1
350
67
  3
D2
350
68
  0
LAYOUT
  5
1DF
102
{ACAD_REACTORS
330
1A
102
}
330
1A
100
AcDbPlotSettings
  1

  2
none_device
  4
ISO_A4_(210.00_x_297.00_MM)
  6

 40
7.5
 41
20.0
 42
7.5
 43
20.0
 44
210.0
 45
297.0
 46
0.0
 47
0.0
 48
0.0
 49
0.0
140
0.0
141
0.0
142
1.0
143
0.9723348118
 70
   688
 72
     1
 73
     1
 74
     1
  7

 75
     0
147
1.0284523272
148
124.9645918664
149
15.6377368144
100
AcDbLayout
  1
_Bottom
 70
     1
 71
     5
 10
0.0
 20
0.0
 11
0.0
 21
0.0
 12
0.0
 22
0.0
 32
0.0
 14
0.0
 24
0.0
 34
0.0
 15
0.0
 25
0.0
 35
0.0
146
0.0
 13
0.0
 23
0.0
 33
0.0
 16
1.0
 26
0.0
 36
0.0
 17
0.0
 27
1.0
 37
0.0
 76
     0
330
1DE
331
43F
  0
LAYOUT
  5
2FA
102
{ACAD_REACTORS
330
1A
102
}
330
1A
100
AcDbPlotSettings
  1

  2
none_device
  4
ISO_A4_(210.00_x_297.00_MM)
  6

 40
7.5
 41
20.0
 42
7.5
 43
20.0
 44
210.0
 45
297.0
 46
0.0
 47
0.0
 48
0.0
 49
0.0
140
0.0
141
0.0
142
1.0
143
0.9723348118
 70
   688
 72
     1
 73
     1
 74
     1
  7

 75
     0
147
1.0284523272
148
124.9645918664
149
15.6377368144
100
AcDbLayout
  1
_Dimetric
 70
     1
 71
     8
 10
0.0
 20
0.0
 11
0.0
 21
0.0
 12
0.0
 22
0.0
 32
0.0
 14
0.0
 24
0.0
 34
0.0
 15
0.0
 25
0.0
 35
0.0
146
0.0
 13
0.0
 23
0.0
 33
0.0
 16
1.0
 26
0.0
 36
0.0
 17
0.0
 27
1.0
 37
0.0
 76
     0
330
2F9
331
445
  0
LAYOUT
  5
158
102
{ACAD_REACTORS
330
1A
102
}
330
1A
100
AcDbPlotSettings
  1

  2
none_device
  4
ISO_A4_(210.00_x_297.00_MM)
  6

 40
7.5
 41
20.0
 42
7.5
 43
20.0
 44
210.0
 45
297.0
 46
0.0
 47
0.0
 48
0.0
 49
0.0
140
0.0
141
0.0
142
1.0
143
0.9723348118
 70
   688
 72
     1
 73
     1
 74
     1
  7

 75
     0
147
1.0284523272
148
124.9645918664
149
15.6377368144
100
AcDbLayout
  1
_Front
 70
     1
 71
     3
 10
0.0
 20
0.0
 11
0.0
 21
0.0
 12
0.0
 22
0.0
 32
0.0
 14
0.0
 24
0.0
 34
0.0
 15
0.0
 25
0.0
 35
0.0
146
0.0
 13
0.0
 23
0.0
 33
0.0
 16
1.0
 26
0.0
 36
0.0
 17
0.0
 27
1.0
 37
0.0
 76
     0
330
157
331
43B
  0
LAYOUT
  5
238
102
{ACAD_REACTORS
330
1A
102
}
330
1A
100
AcDbPlotSettings
  1

  2
none_device
  4
ISO_A4_(210.00_x_297.00_MM)
  6

 40
7.5
 41
20.0
 42
7.5
 43
20.0
 44
210.0
 45
297.0
 46
0.0
 47
0.0
 48
0.0
 49
0.0
140
0.0
141
0.0
142
1.0
143
0.9723348118
 70
   688
 72
     1
 73
     1
 74
     1
  7

 75
     0
147
1.0284523272
148
124.9645918664
149
15.6377368144
100
AcDbLayout
  1
_Isometric
 70
     1
 71
     6
 10
0.0
 20
0.0
 11
0.0
 21
0.0
 12
0.0
 22
0.0
 32
0.0
 14
0.0
 24
0.0
 34
0.0
 15
0.0
 25
0.0
 35
0.0
146
0.0
 13
0.0
 23
0.0
 33
0.0
 16
1.0
 26
0.0
 36
0.0
 17
0.0
 27
1.0
 37
0.0
 76
     0
330
237
331
441
  0
LAYOUT
  5
194
102
{ACAD_REACTORS
330
1A
102
}
330
1A
100
AcDbPlotSettings
  1

  2
none_device
  4
ISO_A4_(210.00_x_297.00_MM)
  6

 40
7.5
 41
20.0
 42
7.5
 43
20.0
 44
210.0
 45
297.0
 46
0.0
 47
0.0
 48
0.0
 49
0.0
140
0.0
141
0.0
142
1.0
143
0.9723348118
 70
   688
 72
     1
 73
     1
 74
     1
  7

 75
     0
147
1.0284523272
148
124.9645918664
149
15.6377368144
100
AcDbLayout
  1
_Left
 70
     1
 71
     4
 10
0.0
 20
0.0
 11
0.0
 21
0.0
 12
0.0
 22
0.0
 32
0.0
 14
0.0
 24
0.0
 34
0.0
 15
0.0
 25
0.0
 35
0.0
146
0.0
 13
0.0
 23
0.0
 33
0.0
 16
1.0
 26
0.0
 36
0.0
 17
0.0
 27
1.0
 37
0.0
 76
     0
330
193
331
43D
  0
LAYOUT
  5
26
102
{ACAD_REACTORS
330
1A
102
}
330
1A
100
AcDbPlotSettings
  1

  2
none_device
  4
ISO_A4_(210.00_x_297.00_MM)
  6

 40
7.5
 41
20.0
 42
7.5
 43
20.0
 44
210.0
 45
297.0
 46
0.0
 47
0.0
 48
0.0
 49
0.0
140
0.0
141
0.0
142
1.0
143
0.9723348118
 70
   688
 72
     1
 73
     1
 74
     1
  7

 75
     0
147
1.0284523272
148
124.9645918664
149
15.6377368144
100
AcDbLayout
  1
_Right
 70
     1
 71
     2
 10
0.0
 20
0.0
 11
0.0
 21
0.0
 12
0.0
 22
0.0
 32
0.0
 14
0.0
 24
0.0
 34
0.0
 15
0.0
 25
0.0
 35
0.0
146
0.0
 13
0.0
 23
0.0
 33
0.0
 16
1.0
 26
0.0
 36
0.0
 17
0.0
 27
1.0
 37
0.0
 76
     0
330
23
331
439
  0
LAYOUT
  5
1E
102
{ACAD_REACTORS
330
1A
102
}
330
1A
100
AcDbPlotSettings
  1

  2
none_device
  4
ISO_A4_(210.00_x_297.00_MM)
  6

 40
7.5
 41
20.0
 42
7.5
 43
20.0
 44
210.0
 45
297.0
 46
0.0
 47
0.0
 48
0.0
 49
0.0
140
0.0
141
0.0
142
1.0
143
0.9723348118
 70
   688
 72
     1
 73
     1
 74
     1
  7

 75
     0
147
1.0284523272
148
124.9645918664
149
15.6377368144
100
AcDbLayout
  1
_Top
 70
     1
 71
     1
 10
-144.4112881019
 20
-22.9302479027
 11
144.3721509958
 21
181.2600625705
 12
0.0
 22
0.0
 32
0.0
 14
-124.9645918664
 24
-15.6377368144
 34
0.0
 15
124.9254547603
 25
3.5
 35
0.0
146
0.0
 13
0.0
 23
0.0
 33
0.0
 16
1.0
 26
0.0
 36
0.0
 17
0.0
 27
1.0
 37
0.0
 76
     0
330
1B
331
437
  0
LAYOUT
  5
298
102
{ACAD_REACTORS
330
1A
102
}
330
1A
100
AcDbPlotSettings
  1

  2
none_device
  4
ISO_A4_(210.00_x_297.00_MM)
  6

 40
7.5
 41
20.0
 42
7.5
 43
20.0
 44
210.0
 45
297.0
 46
0.0
 47
0.0
 48
0.0
 49
0.0
140
0.0
141
0.0
142
1.0
143
0.9723348118
 70
   688
 72
     1
 73
     1
 74
     1
  7

 75
     0
147
1.0284523272
148
124.9645918664
149
15.6377368144
100
AcDbLayout
  1
_Trimetric
 70
     1
 71
     7
 10
0.0
 20
0.0
 11
0.0
 21
0.0
 12
0.0
 22
0.0
 32
0.0
 14
0.0
 24
0.0
 34
0.0
 15
0.0
 25
0.0
 35
0.0
146
0.0
 13
0.0
 23
0.0
 33
0.0
 16
1.0
 26
0.0
 36
0.0
 17
0.0
 27
1.0
 37
0.0
 76
     0
330
297
331
443
  0
LAYOUT
  5
35B
102
{ACAD_REACTORS
330
1A
102
}
330
1A
100
AcDbPlotSettings
  1

  2
none_device
  4
ISO_A4_(210.00_x_297.00_MM)
  6

 40
7.5
 41
20.0
 42
7.5
 43
20.0
 44
210.0
 45
297.0
 46
0.0
 47
0.0
 48
0.0
 49
0.0
140
0.0
141
0.0
142
1.0
143
0.9723348118
 70
   688
 72
     1
 73
     1
 74
     1
  7

 75
     0
147
1.0284523272
148
124.9645918664
149
15.6377368144
100
AcDbLayout
  1
ISO PERSP
 70
     1
 71
     9
 10
0.0
 20
0.0
 11
0.0
 21
0.0
 12
0.0
 22
0.0
 32
0.0
 14
0.0
 24
0.0
 34
0.0
 15
0.0
 25
0.0
 35
0.0
146
0.0
 13
0.0
 23
0.0
 33
0.0
 16
1.0
 26
0.0
 36
0.0
 17
0.0
 27
1.0
 37
0.0
 76
     0
330
35A
331
447
  0
LAYOUT
  5
3BE
102
{ACAD_REACTORS
330
1A
102
}
330
1A
100
AcDbPlotSettings
  1

  2
none_device
  4
ISO_A4_(210.00_x_297.00_MM)
  6

 40
7.5
 41
20.0
 42
7.5
 43
20.0
 44
210.0
 45
297.0
 46
0.0
 47
0.0
 48
0.0
 49
0.0
140
0.0
141
0.0
142
1.0
143
0.9723348118
 70
   688
 72
     1
 73
     1
 74
     1
  7

 75
     0
147
1.0284523272
148
124.9645918664
149
15.6377368144
100
AcDbLayout
  1
ISO PERSP BACK
 70
     1
 71
    10
 10
0.0
 20
0.0
 11
0.0
 21
0.0
 12
0.0
 22
0.0
 32
0.0
 14
0.0
 24
0.0
 34
0.0
 15
0.0
 25
0.0
 35
0.0
146
0.0
 13
0.0
 23
0.0
 33
0.0
 16
1.0
 26
0.0
 36
0.0
 17
0.0
 27
1.0
 37
0.0
 76
     0
330
3BD
331
449
  0
LAYOUT
  5
22
102
{ACAD_REACTORS
330
1A
102
}
330
1A
100
AcDbPlotSettings
  1

  2
none_device
  4
ANSI_A_(11.00_x_8.50_Inches)
  6

 40
6.35
 41
19.05
 42
6.35000508
 43
19.05000254
 44
279.4
 45
215.9
 46
133.3300112962
 47
103.8093715648
 48
0.0
 49
0.0
140
0.0
141
0.0
142
0.0435796944
143
1.0
 70
  1696
 72
     0
 73
     0
 74
     0
  7

 75
     0
147
0.0179189148
148
-1300.4909072572
149
0.0
100
AcDbLayout
  1
Model
 70
     1
 71
     0
 10
0.0
 20
0.0
 11
420.0
 21
297.0
 12
0.0
 22
0.0
 32
0.0
 14
-124.9254547603
 24
-26.9383799196
 34
0.0
 15
124.9615659287
 25
0.0
 35
0.0
146
0.0
 13
0.0
 23
0.0
 33
0.0
 16
1.0
 26
0.0
 36
0.0
 17
0.0
 27
1.0
 37
0.0
 76
     0
330
1F
331
29
  0
MLINESTYLE
  5
18
102
{ACAD_REACTORS
330
17
102
}
330
17
100
AcDbMlineStyle
  2
Standard
 70
     0
  3

 62
   256
 51
90.0
 52
90.0
 71
     2
 49
0.5
 62
   256
  6
BYLAYER
 49
-0.5
 62
   256
  6
BYLAYER
  0
ACDBPLACEHOLDER
  5
F
102
{ACAD_REACTORS
330
E
102
}
330
E
  0
SCALE
  5
48
102
{ACAD_REACTORS
330
47
102
}
330
47
100
AcDbScale
 70
     0
300
1:1
140
1.0
141
1.0
290
     1
  0
SCALE
  5
49
102
{ACAD_REACTORS
330
47
102
}
330
47
100
AcDbScale
 70
     0
300
1:2
140
1.0
141
2.0
290
     0
  0
SCALE
  5
4A
102
{ACAD_REACTORS
330
47
102
}
330
47
100
AcDbScale
 70
     0
300
1:4
140
1.0
141
4.0
290
     0
  0
SCALE
  5
4B
102
{ACAD_REACTORS
330
47
102
}
330
47
100
AcDbScale
 70
     0
300
1:5
140
1.0
141
5.0
290
     0
  0
SCALE
  5
4C
102
{ACAD_REACTORS
330
47
102
}
330
47
100
AcDbScale
 70
     0
300
1:8
140
1.0
141
8.0
290
     0
  0
SCALE
  5
4D
102
{ACAD_REACTORS
330
47
102
}
330
47
100
AcDbScale
 70
     0
300
1:10
140
1.0
141
10.0
290
     0
  0
SCALE
  5
4E
102
{ACAD_REACTORS
330
47
102
}
330
47
100
AcDbScale
 70
     0
300
1:16
140
1.0
141
16.0
290
     0
  0
SCALE
  5
4F
102
{ACAD_REACTORS
330
47
102
}
330
47
100
AcDbScale
 70
     0
300
1:20
140
1.0
141
20.0
290
     0
  0
SCALE
  5
50
102
{ACAD_REACTORS
330
47
102
}
330
47
100
AcDbScale
 70
     0
300
1:30
140
1.0
141
30.0
290
     0
  0
SCALE
  5
51
102
{ACAD_REACTORS
330
47
102
}
330
47
100
AcDbScale
 70
     0
300
1:40
140
1.0
141
40.0
290
     0
  0
SCALE
  5
52
102
{ACAD_REACTORS
330
47
102
}
330
47
100
AcDbScale
 70
     0
300
1:50
140
1.0
141
50.0
290
     0
  0
SCALE
  5
53
102
{ACAD_REACTORS
330
47
102
}
330
47
100
AcDbScale
 70
     0
300
1:100
140
1.0
141
100.0
290
     0
  0
SCALE
  5
54
102
{ACAD_REACTORS
330
47
102
}
330
47
100
AcDbScale
 70
     0
300
2:1
140
2.0
141
1.0
290
     0
  0
SCALE
  5
55
102
{ACAD_REACTORS
330
47
102
}
330
47
100
AcDbScale
 70
     0
300
4:1
140
4.0
141
1.0
290
     0
  0
SCALE
  5
56
102
{ACAD_REACTORS
330
47
102
}
330
47
100
AcDbScale
 70
     0
300
8:1
140
8.0
141
1.0
290
     0
  0
SCALE
  5
57
102
{ACAD_REACTORS
330
47
102
}
330
47
100
AcDbScale
 70
     0
300
10:1
140
10.0
141
1.0
290
     0
  0
SCALE
  5
58
102
{ACAD_REACTORS
330
47
102
}
330
47
100
AcDbScale
 70
     0
300
100:1
140
100.0
141
1.0
290
     0
  0
SCALE
  5
59
102
{ACAD_REACTORS
330
47
102
}
330
47
100
AcDbScale
 70
     0
300
1/128" = 1'-0"
140
0.0078125
141
12.0
290
     0
  0
SCALE
  5
5A
102
{ACAD_REACTORS
330
47
102
}
330
47
100
AcDbScale
 70
     0
300
1/64" = 1'-0"
140
0.015625
141
12.0
290
     0
  0
SCALE
  5
5B
102
{ACAD_REACTORS
330
47
102
}
330
47
100
AcDbScale
 70
     0
300
1/32" = 1'-0"
140
0.03125
141
12.0
290
     0
  0
SCALE
  5
5C
102
{ACAD_REACTORS
330
47
102
}
330
47
100
AcDbScale
 70
     0
300
1/16" = 1'-0"
140
0.0625
141
12.0
290
     0
  0
SCALE
  5
5D
102
{ACAD_REACTORS
330
47
102
}
330
47
100
AcDbScale
 70
     0
300
3/32" = 1'-0"
140
0.09375
141
12.0
290
     0
  0
SCALE
  5
5E
102
{ACAD_REACTORS
330
47
102
}
330
47
100
AcDbScale
 70
     0
300
1/8" = 1'-0"
140
0.125
141
12.0
290
     0
  0
SCALE
  5
5F
102
{ACAD_REACTORS
330
47
102
}
330
47
100
AcDbScale
 70
     0
300
3/16" = 1'-0"
140
0.1875
141
12.0
290
     0
  0
SCALE
  5
60
102
{ACAD_REACTORS
330
47
102
}
330
47
100
AcDbScale
 70
     0
300
1/4" = 1'-0"
140
0.25
141
12.0
290
     0
  0
SCALE
  5
61
102
{ACAD_REACTORS
330
47
102
}
330
47
100
AcDbScale
 70
     0
300
3/8" = 1'-0"
140
0.375
141
12.0
290
     0
  0
SCALE
  5
62
102
{ACAD_REACTORS
330
47
102
}
330
47
100
AcDbScale
 70
     0
300
1/2" = 1'-0"
140
0.5
141
12.0
290
     0
  0
SCALE
  5
63
102
{ACAD_REACTORS
330
47
102
}
330
47
100
AcDbScale
 70
     0
300
3/4" = 1'-0"
140
0.75
141
12.0
290
     0
  0
SCALE
  5
64
102
{ACAD_REACTORS
330
47
102
}
330
47
100
AcDbScale
 70
     0
300
1" = 1'-0"
140
1.0
141
12.0
290
     0
  0
SCALE
  5
65
102
{ACAD_REACTORS
330
47
102
}
330
47
100
AcDbScale
 70
     0
300
1-1/2" = 1'-0"
140
1.5
141
12.0
290
     0
  0
SCALE
  5
66
102
{ACAD_REACTORS
330
47
102
}
330
47
100
AcDbScale
 70
     0
300
3" = 1'-0"
140
3.0
141
12.0
290
     0
  0
SCALE
  5
67
102
{ACAD_REACTORS
330
47
102
}
330
47
100
AcDbScale
 70
     0
300
6" = 1'-0"
140
6.0
141
12.0
290
     0
  0
SCALE
  5
68
102
{ACAD_REACTORS
330
47
102
}
330
47
100
AcDbScale
 70
     0
300
1'-0" = 1'-0"
140
12.0
141
12.0
290
     0
  0
ENDSEC
  0
EOF
